Hammerhead, The Offsprings (tablatura)

Autor: kax02 | 36758 visualizaciones



Muy buena cancion si la tocas bien suena genial espero les guste

Tuning: Standard
  
  Intro play x15
e|-----------------|
B|-----------------|
G|---------4-------|
D|-----6-------4/6-|
A|---6---6---6-----|
E|-4---------------|

  verse Play x6
e|----------------|
B|----------------|
G|----------------|
D|-6-x-6-x-6-4-4--|
A|-6-x-6-x-6-4-4--|
E|-4-x-4-x-4-2-2--|

  Continued
e|---------------------------------------|
B|---------------------------------------|
G|-4-4-4-4-4-4-4-4-4-4-4-4-4-4-4-4-4-4-6-|
D|-4-4-4-4-4-4-4-4-4-4-4-4-4-4-4-4-4-4-6-|
A|-2-2-2-2-2-2-2-2-2-2-2-2-2-2-2-2-2-2-4-|
E|---------------------------------------|

  verse Play x6
e|----------------|
B|----------------|
G|----------------|
D|-6-x-6-x-6-4-4--|
A|-6-x-6-x-6-4-4--|
E|-4-x-4-x-4-2-2--|

  Continued
e|---------------------------------------|
B|---------------------------------------|
G|-4-4-4-4-4-4-4-4-4-4-4-4-4-4-4-4-4-4-6-|
D|-4-4-4-4-4-4-4-4-4-4-4-4-4-4-4-4-4-4-6-|
A|-2-2-2-2-2-2-2-2-2-2-2-2-2-2-2-2-2-2-4-|
E|---------------------------------------|

  Play x2
e|----------------|
B|----------------|
G|----------------|
D|-6-x-6-x-6-4-4--|
A|-6-x-6-x-6-4-4--|
E|-4-x-4-x-4-2-2--|

  Pre-chorus Play x2
e|-------------------------------------------|
B|-------------------------------------------|
G|-6-6-6-9-8-8---------4-6-6-6-9-8---------4-|
D|-6-6-6-9-8-8-6-6-6-6-4-6-6-6-9-8-6-6-6-6-4-|
A|-4-4-4-7-6-6-6-6-6-6-2-4-4-4-7-6-6-6-6-6-2-|
E|-------------4-4-4-4-------------4-4-4-4---|
  
  Continued
e|---------------------------------|
B|---------------------------------|
G|-6-6-6-6-6-6-6-6-8-8-8-8---------|
D|-6-6-6-6-6-6-6-6-8-8-8-8-4-4-4-4-|
A|-4-4-4-4-4-4-4-4-6-6-6-6-4-4-4-4-|
E|-------------------------2-2-2-2-|

  Chorus play x4
e|---------------------------------|
B|---------------------------------|
G|---------9-9-9-9---------8-8-8-8-|
D|-6-6-6-6-9-9-9-9-9-9-9-9-8-8-8-8-|
A|-6-6-6-6-7-7-7-7-9-9-9-9-6-6-6-6-|
E|-4-4-4-4---------7-7-7-7---------|

  Play verse again 

  Play Pre-chorus again

  Chorus play x4
e|---------------------------------|
B|---------------------------------|
G|---------9-9-9-9---------8-8-8-8-|
D|-6-6-6-6-9-9-9-9-9-9-9-9-8-8-8-8-|
A|-6-6-6-6-7-7-7-7-9-9-9-9-6-6-6-6-|
E|-4-4-4-4---------7-7-7-7---------|

  Continued
e|-----------|
B|-----------|
G|-9-9-8-8-6-|
D|-9-9-8-8-6-|
A|-7-7-6-6-4-|
E|-----------|

  Bass line

  Bridge Play x3
e|----------------------------------|
B|----------------------------------|
G|-6-6-x-6--4-4-x-4--9-9--4-x-4-4-5-|
D|-6-6-x-6--4-4-x-4--9-9--4-x-4-4-5-|
A|-4-4-x-4--2-2-x-2--7-7--2-x-2-2-3-|
E|----------------------------------|

  Continued
e|----------------------------|
B|-------------14--14--14--14-|
G|--6--6--6--6-13--13--13--13-|
D|--6--6--6--6-11--11--11--11-|
A|--4--4--4--4----------------|
E|----------------------------|

  Continued Play x3
e|----------------------------------|
B|----------------------------------|
G|-6-6-x-6--4-4-x-4--9-9--4-x-4-4-5-|
D|-6-6-x-6--4-4-x-4--9-9--4-x-4-4-5-|
A|-4-4-x-4--2-2-x-2--7-7--2-x-2-2-3-|
E|----------------------------------|

  Continued fast strumming
e|-------------------------------------|
B|-------------------------------------|
G|--6-6-6-6--6-6-6-6--6-6-6-6--6-6-6-6-|
D|--6-6-6-6--6-6-6-6--6-6-6-6--6-6-6-6-|
A|--4-4-4-4--4-4-4-4--4-4-4-4--4-4-4-4-|
E|-------------------------------------|

  Continued Play x3
e|----------------------------------|
B|----------------------------------|
G|-6-6-x-6--4-4-x-4--9-9--4-x-4-4-5-|
D|-6-6-x-6--4-4-x-4--9-9--4-x-4-4-5-|
A|-4-4-x-4--2-2-x-2--7-7--2-x-2-2-3-|
E|----------------------------------|

  Continued
e|-------------------------|
B|-------------------------|
G|--6--6--6--6--6--6--6--6-|
D|--6--6--6--6--6--6--6--6-|
A|--4--4--4--4--4--4--4--4-|
E|-------------------------|

  Bass line

  Play x3
e|----------------------------------|
B|----------------------------------|
G|-6-6-x-6--4-4-x-4--9-9--4-x-4-4-5-|
D|-6-6-x-6--4-4-x-4--9-9--4-x-4-4-5-|
A|-4-4-x-4--2-2-x-2--7-7--2-x-2-2-3-|
E|----------------------------------|

  Continued
e|----------------------------|
B|-------------14--14--14--14-|
G|--6--6--6--6-13--13--13--13-|
D|--6--6--6--6-11--11--11--11-|
A|--4--4--4--4----------------|
E|----------------------------|

  Continued Play x3
e|----------------------------------|
B|----------------------------------|
G|-6-6-x-6--4-4-x-4--9-9--4-x-4-4-5-|
D|-6-6-x-6--4-4-x-4--9-9--4-x-4-4-5-|
A|-4-4-x-4--2-2-x-2--7-7--2-x-2-2-3-|
E|----------------------------------|

  Continued
e|-------------------------|
B|-------------------------|
G|--6--6--6--6--6--6--6--6-|
D|--6--6--6--6--6--6--6--6-|
A|--4--4--4--4--4--4--4--4-|
E|-------------------------|

     hm . . . .  hm . . . .  hm . . . .  hm . . . .
e|--------------------------------------------------|
B|--------------------------------------------------|
G|--6-6-+-+-+-+-6-6-+-+-+-+-6-6-+-+-+-+-6-6-+-+-+-+-|
D|--6-6-+-+-+-+-6-6-+-+-+-+-6-6-+-+-+-+-6-6-+-+-+-+-|
A|--4-4-+-+-+-+-4-4-+-+-+-+-4-4-+-+-+-+-4-4-+-+-+-+-|
E|--------------------------------------------------|
  
  Outro
pm . . . . . . . . . . . . . . . .
e|---------------------------------|
B|---------------------------------|
G|---------------------------------|
D|-6-6-6-6-6-6-6-6-6-6-6-6-6-6-6-6-|
A|-4-4-4-4-4-4-4-4-4-4-4-4-4-4-4-4-|
E|---------------------------------|

  Continued
e|--------------------------------------|
B|--------------------------------------|
G|-6-6-6-4-4-6-6-6-4-4-6-6-6-4-4-6-let -|
D|-6-6-6-4-4-6-6-6-4-4-6-6-6-4-4-6-hang-|
A|-4-4-4-2-2-4-4-4-2-2-4-4-4-2-2-4------|
E|--------------------------------------|



| /  slide up
| \  slide down
| h  hammer-on
| p  pull-off
| ~  vibrato
| +  harmonic
| x  Mute note





Comentarios del colaborador: Comenten boten

Calificar esta versión:
Aviso: Este fichero es trabajo propio de su transcriptor y representa su interpretación personal de la canción. El material contenido en esta página es para exclusivo uso privado, por lo que se prohibe su reproducción o retransmisión, así como su uso para fines comerciales.