Come Out And Play, The Offsprings (tablatura)

Autor: jesusmonteriano | 35435 visualizaciones



E---------------------------------------------------------------
B---------------------------------------------------------------
G--4----7-------------------------------------------------------
D--4----7----4---7-------0-22/4--2-0----------------0-22/-4-2-0-
A--2----5----4---7--2--3-------------3-2-2-3-2-2-3--------------
E------------2---5----------------------------------------------

riff egipcio:

E---------------------------------------------
B---------------------------------------------
G---------------------------------------------
D---------------------------------------------
A-------6-7-9-7-6-----------------------------
E---7-8-----------8-7-8-7---------------------

MAS O MENOS HACI SE VA TODA LA CANCION 





Comentarios del colaborador: SOLO ESCUCHEN LA CANCION Y PRACTIQUEN

Calificar esta versión:
Aviso: Este fichero es trabajo propio de su transcriptor y representa su interpretación personal de la canción. El material contenido en esta página es para exclusivo uso privado, por lo que se prohibe su reproducción o retransmisión, así como su uso para fines comerciales.