Shadowplay, The Killers (tablatura)

Autor: frankyer96 | 30964 visualizaciones



E||-------|-------|-------|-------|-------|-------|
B||-------|-------|-------|-------|-------|-------|
G||-------|-------|-------|-------|-------|-------|
D||-------|-------|-------|-------|-------|-------|
A||-------|-------|-------|-------|-------|-------|
E||-------|-------|-------|-------|-------|-------|


-------|-------|-------|-------|
-------|-------|-------|-------|
-------|-------|-------|-------|
-------|-------|-------|-------|
-------|-------|-------|-------|
-------|-------|-------|-------|


   E   E   E   E   E   E   E   E   
--12--11--10--12--11--10--12--11--|
----------------------------------|
----------------------------------|
----------------------------------|
----------------------------------|
----------------------------------|


   E   E   E   E   E   E   Q        W                 
--10--12--11--10--12--11--10----|---L----------------|
--------------------------------|--------------------|
--------------------------------|--------------------|
--------------------------------|--------------------|
--------------------------------|--------------------|
--------------------------------|--------------------|


           E   E   E   E   E   E   E   E   
-------|--12--11--10--12--11--10--12--11--|
-------|----------------------------------|
-------|----------------------------------|
-------|----------------------------------|
-------|----------------------------------|
-------|----------------------------------|


   E   E   E   E   E   E   Q        W                 
--10--12--11--10--12--11--10----|---L----------------|
--------------------------------|--------------------|
--------------------------------|--------------------|
--------------------------------|--------------------|
--------------------------------|--------------------|
--------------------------------|--------------------|


          W                   Q    Q    Q    Q     
-------|--1----------------|--L---------1----3----|
-------|--1----------------|--L----L----1----3----|
-------|--2----------------|--L----L----2----4----|
-------|--3----------------|--L----L----3----5----|
-------|--3----------------|--L----L----3----5----|
-------|-------------------|--L-------------------|


  W                   W                 
--5----------------|--L----------------|
--5----------------|--L----------------|
--5----------------|--L----------------|
--7----------------|--L----------------|
--7----------------|--L----------------|
-------------------|--L----------------|


  E  E  E  E  E  E  E  E     E  E  E  E  Q    Q     
--1--1--1--1--1--1--1--1--|--1--1--1--1--1----3----|
--1--1--1--1--1--1--1--1--|--1--1--1--1--1----3----|
--2--2--2--2--2--2--2--2--|--2--2--2--2--2----4----|
--3--3--3--3--3--3--3--3--|--3--3--3--3--3----5----|
--3--3--3--3--3--3--3--3--|--3--3--3--3--3----5----|
--------------------------|--L---------------------|


  E  E  E  E  E  E  E  E     E  E  E  E  E  E  E  E   
--5--5--5--5--5--5--5--5--|--5--5--5--5--5--5--5--5--|
--5--5--5--5--5--5--5--5--|--5--5--5--5--5--5--5--5--|
--5--5--5--5--5--5--5--5--|--5--5--5--5--5--5--5--5--|
--7--7--7--7--7--7--7--7--|--7--7--7--7--7--7--7--7--|
--7--7--7--7--7--7--7--7--|--7--7--7--7--7--7--7--7--|
--------------------------|--------------------------|


  E  E  E  E  E  E  E  E     E  E  E  E  Q    Q     
--1--1--1--1--1--1--1--1--|--1--1--1--1--1----3----|
--1--1--1--1--1--1--1--1--|--1--1--1--1--1----3----|
--2--2--2--2--2--2--2--2--|--2--2--2--2--2----4----|
--3--3--3--3--3--3--3--3--|--3--3--3--3--3----5----|
--3--3--3--3--3--3--3--3--|--3--3--3--3--3----5----|
--------------------------|--L---------------------|


  E  E  E  E  E  E  E  E     E  E  E  E  E  E  E  E   
--5--5--5--5--5--5--5--5--|--5--5--5--5--5--5--5--5--|
--5--5--5--5--5--5--5--5--|--5--5--5--5--5--5--5--5--|
--5--5--5--5--5--5--5--5--|--5--5--5--5--5--5--5--5--|
--7--7--7--7--7--7--7--7--|--7--7--7--7--7--7--7--7--|
--7--7--7--7--7--7--7--7--|--7--7--7--7--7--7--7--7--|
--------------------------|--------------------------|


  E  E  E  E  E  E  E  E     E  E  E  E  Q    Q     
--1--1--1--1--1--1--1--1--|--1--1--1--1--1----3----|
--1--1--1--1--1--1--1--1--|--1--1--1--1--1----3----|
--2--2--2--2--2--2--2--2--|--2--2--2--2--2----4----|
--3--3--3--3--3--3--3--3--|--3--3--3--3--3----5----|
--3--3--3--3--3--3--3--3--|--3--3--3--3--3----5----|
--------------------------|--L---------------------|


  E  E  E  E  E  E  E  E     E  E  E  E  E  E  E  E   
--5--5--5--5--5--5--5--5--|--5--5--5--5--5--5--5--5--|
--5--5--5--5--5--5--5--5--|--5--5--5--5--5--5--5--5--|
--5--5--5--5--5--5--5--5--|--5--5--5--5--5--5--5--5--|
--7--7--7--7--7--7--7--7--|--7--7--7--7--7--7--7--7--|
--7--7--7--7--7--7--7--7--|--7--7--7--7--7--7--7--7--|
--------------------------|--------------------------|


  W                                     
--1----------------|-------------------|
--1----------------|-------------------|
--2----------------|-------------------|
--3----------------|-------------------|
--3----------------|-------------------|
-------------------|-------------------|


-------------------|-------------------|
-------------------|-------------------|
-------------------|-------------------|
-------------------|-------------------|
-------------------|-------------------|
-------------------|-------------------|


-------------------|-------------------|
-------------------|-------------------|
-------------------|-------------------|
-------------------|-------------------|
-------------------|-------------------|
-------------------|-------------------|


-------------------|-------------------|
-------------------|-------------------|
-------------------|-------------------|
-------------------|-------------------|
-------------------|-------------------|
-------------------|-------------------|


-------------------|-------------------|
-------------------|-------------------|
-------------------|-------------------|
-------------------|-------------------|
-------------------|-------------------|
-------------------|-------------------|


-------------------|-------------------|
-------------------|-------------------|
-------------------|-------------------|
-------------------|-------------------|
-------------------|-------------------|
-------------------|-------------------|


-------------------|-------------------|
-------------------|-------------------|
-------------------|-------------------|
-------------------|-------------------|
-------------------|-------------------|
-------------------|-------------------|


-------------------|-------------------|
-------------------|-------------------|
-------------------|-------------------|
-------------------|-------------------|
-------------------|-------------------|
-------------------|-------------------|


  Q    E  H        E     E  E  E  E  E  Q    E   
----------------------|-------------------------|
----------------------|-------------------------|
--4----2--------------|----------------------0--|
----------2--------L--|-----------L--0--2-------|
----------------------|-------------------------|
----------------------|-------------------------|


  E  H        Q    E     W                 
----------------------|-------------------|
----------------------|-------------------|
--L-------------------|-------------------|
-----2-------------L--|--L----------------|
----------------------|-------------------|
----------------------|-------------------|


                                             ^   
  Q    E  Q    Q    E     Q    E  E  E  Q    E   
-----------------------|------------------------|
-----------------------|---------------------1--|
--4----2--0----2-------|---------------------2--|
--------------------2--|-------L--2--0--2----2--|
-----------------------|---------------------0--|
-----------------------|------------------------|


  W                   W                 
-------------------|-------------------|
--L----------------|--L----------------|
--L----------------|--L----------------|
--L----------------|--L----------------|
--L----------------|--L----------------|
-------------------|-------------------|


   E   E   E   E   E   E   E   E   
--12--11--10--12--11--10--12--11--|
----------------------------------|
----------------------------------|
----------------------------------|
----------------------------------|
----------------------------------|


   E   E   E   E   E   E   Q        W                 
--10--12--11--10--12--11--10----|---L----------------|
--------------------------------|--------------------|
--------------------------------|--------------------|
--------------------------------|--------------------|
--------------------------------|--------------------|
--------------------------------|--------------------|


           E   E   E   E   E   E   E   E   
-------|--12--11--10--12--11--10--12--11--|
-------|----------------------------------|
-------|----------------------------------|
-------|----------------------------------|
-------|----------------------------------|
-------|----------------------------------|


                              ^                       
   E   E   E   E   E   E   E  E     W                 
--10--12--11--10--12--11--10-----|-------------------|
------------------------------1--|--L----------------|
------------------------------2--|--L----------------|
------------------------------2--|--L----------------|
------------------------------0--|--L----------------|
---------------------------------|-------------------|


  W                                                 
-------------------|-------|-------|-------|-------|
--L----------------|-------|-------|-------|-------|
--L----------------|-------|-------|-------|-------|
--L----------------|-------|-------|-------|-------|
--L----------------|-------|-------|-------|-------|
-------------------|-------|-------|-------|-------|


-------|-------|-------|-------|-------|-------|-------|
-------|-------|-------|-------|-------|-------|-------|
-------|-------|-------|-------|-------|-------|-------|
-------|-------|-------|-------|-------|-------|-------|
-------|-------|-------|-------|-------|-------|-------|
-------|-------|-------|-------|-------|-------|-------|


-------|-------|-------|-------|-------|-------|-------|
-------|-------|-------|-------|-------|-------|-------|
-------|-------|-------|-------|-------|-------|-------|
-------|-------|-------|-------|-------|-------|-------|
-------|-------|-------|-------|-------|-------|-------|
-------|-------|-------|-------|-------|-------|-------|


                  E  E  E  E  E  E  E  E   
-------|-------|--1--1--1--1--1--1--1--1--|
-------|-------|--0--0--0--1--1--1--1--1--|
-------|-------|--2--2--2--2--2--2--2--2--|
-------|-------|--3--3--3--3--3--3--3--3--|
-------|-------|--3--3--3--3--3--3--3--3--|
-------|-------|--------------------------|


  E  E  E  E  E  E  E  E     E  E  E  E  E  E  E  E   
--1--1--1--1--1--1--1--1--|--------------------------|
--0--0--0--1--1--1--1--1--|--0--0--0--1--1--1--1--1--|
--2--2--2--2--2--2--2--2--|--2--2--2--2--2--2--2--2--|
--3--3--3--3--3--3--3--3--|--2--2--2--2--2--2--2--2--|
--3--3--3--3--3--3--3--3--|--0--0--0--0--0--0--0--0--|
--------------------------|--------------------------|


  E  E  E  E  E  E  E  E     E  E  E  E  E  E  E  E   
--------------------------|--1--1--1--1--1--1--1--1--|
--0--0--0--1--1--1--1--1--|--0--0--0--1--1--1--1--1--|
--2--2--2--2--2--2--2--2--|--2--2--2--2--2--2--2--2--|
--2--2--2--2--2--2--2--2--|--3--3--3--3--3--3--3--3--|
--0--0--0--0--0--0--0--0--|--3--3--3--3--3--3--3--3--|
--------------------------|--------------------------|


  E  E  E  E  E  E  E  E     E  E  E  E  E  E  E  E   
--1--1--1--1--1--1--1--1--|--------------------------|
--0--0--0--1--1--1--1--1--|--0--0--0--1--1--1--1--1--|
--2--2--2--2--2--2--2--2--|--2--2--2--2--2--2--2--2--|
--3--3--3--3--3--3--3--3--|--2--2--2--2--2--2--2--2--|
--3--3--3--3--3--3--3--3--|--0--0--0--0--0--0--0--0--|
--------------------------|--------------------------|


  E  E  E  E  E  E  E  E     W                 
--------------------------|--1----------------|
--0--0--0--1--1--1--1--1--|--1----------------|
--2--2--2--2--2--2--2--2--|--2----------------|
--2--2--2--2--2--2--2--2--|--3----------------|
--0--0--0--0--0--0--0--0--|--3----------------|
--------------------------|-------------------|


  W                   W                 
--L----------------|--L----------------|
--L----------------|--L----------------|
--L----------------|--L----------------|
--L----------------|--L----------------|
--L----------------|--L----------------|
-------------------|-------------------|


  W                   W                 
--L----------------|--L----------------|
--L----------------|--L----------------|
--L----------------|--L----------------|
--L----------------|--L----------------|
--L----------------|--L----------------|
-------------------|-------------------|


  W                   W                 
--L----------------|--L----------------|
--L----------------|--L----------------|
--L----------------|--L----------------|
--L----------------|--L----------------|
--L----------------|--L----------------|
-------------------|-------------------|


  W                   W                 
--L----------------|--L----------------|
--L----------------|--L----------------|
--L----------------|--L----------------|
--L----------------|--L----------------|
--L----------------|--L----------------|
-------------------|-------------------|


  W                   W                 
--L----------------|--L----------------|
--L----------------|--L----------------|
--L----------------|--L----------------|
--L----------------|--L----------------|
--L----------------|--L----------------|
-------------------|-------------------|


  W                   W                 
--L----------------|--L----------------|
--L----------------|--L----------------|
--L----------------|--L----------------|
--L----------------|--L----------------|
--L----------------|--L----------------|
-------------------|-------------------|


  W                   W                 
--L----------------|--L----------------|
--L----------------|--L----------------|
--L----------------|--L----------------|
--L----------------|--L----------------|
--L----------------|--L----------------|
-------------------|-------------------|


  W                   Q    Q    Q    E  E   
--L----------------|-----------------------|
--L----------------|-----------------------|
--L----------------|--7----5----2----L--7--|
--L----------------|-----------------------|
--L----------------|--5----3----0----L--5--|
-------------------|-----------------------|


  E  E  Q    Q    Q       Q    Q    Q    E  E   
-----------------------|-----------------------|
-----------------------|-----------------------|
--L--7--5----2----L----|--7----5----2----L--7--|
-----------------------|-----------------------|
--L--5--3----0----L----|--5----3----0----L--5--|
-----------------------|-----------------------|


  E  E  Q    Q    Q       Q    Q    Q    E  E   
-----------------------|-----------------------|
-----------------------|-----------------------|
--L--7--5----2----L----|--7----5----2----L--7--|
-----------------------|-----------------------|
--L--5--3----0----L----|--5----3----0----L--5--|
-----------------------|-----------------------|


  E  E  Q    Q    Q       Q    Q    Q    E  E   
-----------------------|-----------------------|
-----------------------|-----------------------|
--L--7--5----2----L----|--7----5----2----L--7--|
-----------------------|-----------------------|
--L--5--3----0----L----|--5----3----0----L--5--|
-----------------------|-----------------------|


  E  E  Q    Q    Q       Q    Q    Q    E  E   
-----------------------|-----------------------|
-----------------------|-----------------------|
--L--7--5----2----L----|--7----5----2----L--7--|
-----------------------|-----------------------|
--L--5--3----0----L----|--5----3----0----L--5--|
-----------------------|-----------------------|


  E  E  Q    Q    Q       Q    Q    Q    E  E   
-----------------------|-----------------------|
-----------------------|-----------------------|
--L--7--5----2----L----|--7----5----2----L--7--|
-----------------------|-----------------------|
--L--5--3----0----L----|--5----3----0----L--5--|
-----------------------|-----------------------|


  E  E  Q    Q    Q       Q    Q    Q    E  E   
-----------------------|-----------------------|
-----------------------|-----------------------|
--L--7--5----2----L----|--7----5----2----L--7--|
-----------------------|-----------------------|
--L--5--3----0----L----|--5----3----0----L--5--|
-----------------------|-----------------------|


  E  E  Q    Q    Q       Q    Q    Q    E  E   
-----------------------|-----------------------|
-----------------------|-----------------------|
--L--7--5----2----L----|--7----5----2----L--7--|
-----------------------|-----------------------|
--L--5--3----0----L----|--5----3----0----L--5--|
-----------------------|-----------------------|


  E  E  Q    Q    Q       Q    Q    Q    E  E   
-----------------------|-----------------------|
-----------------------|-----------------------|
--L--7--5----2----L----|--7----5----2----L--7--|
-----------------------|-----------------------|
--L--5--3----0----L----|--5----3----0----L--5--|
-----------------------|-----------------------|


  E  E  Q    Q    Q       Q    Q    Q    E  E   
-----------------------|-----------------------|
-----------------------|-----------------------|
--L--7--5----2----L----|--7----5----2----L--7--|
-----------------------|-----------------------|
--L--5--3----0----L----|--5----3----0----L--5--|
-----------------------|-----------------------|


  E  E  Q    Q    Q       Q    Q    Q    E  E   
-----------------------|-----------------------|
-----------------------|-----------------------|
--L--7--5----2----L----|--7----5----2----L--7--|
-----------------------|-----------------------|
--L--5--3----0----L----|--5----3----0----L--5--|
-----------------------|-----------------------|


  E  E  Q    Q    Q       Q    Q    Q    E  E   
-----------------------|-----------------------|
-----------------------|-----------------------|
--L--7--5----2----L----|--7----5----2----L--7--|
-----------------------|-----------------------|
--L--5--3----0----L----|--5----3----0----L--5--|
-----------------------|-----------------------|


  E  E  Q    Q    Q       Q    Q    Q    E  E   
-----------------------|-----------------------|
-----------------------|-----------------------|
--L--7--5----2----L----|--7----5----2----L--7--|
-----------------------|-----------------------|
--L--5--3----0----L----|--5----3----0----L--5--|
-----------------------|-----------------------|


  E  E  Q    Q    Q       Q    Q    Q    E  E   
-----------------------|-----------------------|
-----------------------|-----------------------|
--L--7--5----2----L----|--7----5----2----L--7--|
-----------------------|-----------------------|
--L--5--3----0----L----|--5----3----0----L--5--|
-----------------------|-----------------------|


  E  E  Q    Q    Q       Q    Q    Q    E  E   
-----------------------|-----------------------|
-----------------------|-----------------------|
--L--7--5----2----L----|--7----5----2----L--7--|
-----------------------|-----------------------|
--L--5--3----0----L----|--5----3----0----L--5--|
-----------------------|-----------------------|


  E  E  Q    Q    Q       Q    Q    Q    E  E   
-----------------------|-----------------------|
-----------------------|-----------------------|
--L--7--5----2----L----|--7----5----2----L--7--|
-----------------------|-----------------------|
--L--5--3----0----L----|--5----3----0----L--5--|
-----------------------|-----------------------|


  E  E  Q    Q    Q       W                 
-----------------------|--1----------------|
-----------------------|--1----------------|
--L--7--5----2----L----|--2----------------|
-----------------------|--3----------------|
--L--5--3----0----L----|--3----------------|
-----------------------|-------------------|


-------------------|-------------------|
-------------------|-------------------|
-------------------|-------------------|
-------------------|-------------------|
-------------------|-------------------|
-------------------|-------------------|


-------------------|-------------------|
-------------------|-------------------|
-------------------|-------------------|
-------------------|-------------------|
-------------------|-------------------|
-------------------|-------------------|


-------------------|-------------------||
-------------------|-------------------||
-------------------|-------------------||
-------------------|-------------------||
-------------------|-------------------||
-------------------|-------------------||





Calificar esta versión:
Aviso: Este fichero es trabajo propio de su transcriptor y representa su interpretación personal de la canción. El material contenido en esta página es para exclusivo uso privado, por lo que se prohibe su reproducción o retransmisión, así como su uso para fines comerciales.