Romeo And Juliet, The Killers (tablatura)

Autor: sigfrido | 35631 visualizaciones



suerte

Intro

 D               A      G
-2---------2------------3----------------------|
-3---3-------3---2------0---0-----0-----2h3----|
-2-----2-----------2----0-----0-----0----------|
-0-0-----0-----0-----2--0-0-----0-----0--------|
------------------------2----------------------|
------------------------3----------------------|

 D               A      G               A
-2---------2------------3----------------------|
-3---3-------3---2------0---0-----0-----2------|
-2-----2-----------2----0-----0-----0-----2----|
-0-0-----0-----0-----2--0-0-----0-----0-----2--|
------------------------2----------------------|
------------------------3----------------------|

 D               A      G
-2---------2------------3----------------------|
-3---3-------3---2------0---0-----0-----2h3----|
-2-----2-----------2----0-----0-----0----------|
-0-0-----0-----0-----2--0-0-----0-----0--------|
------------------------2----------------------|
------------------------3----------------------|

 D               A      G               A
-2---------2------------3----------------------|
-3---3-------3---2------0---0-----0-----2------|
-2-----2-----------2----0-----0-----0-----2----|
-0-0-----0-----0-----2--0-0-----0-----0-----2--|
------------------------2----------------------|
------------------------3----------------------|





Calificar esta versión:
Aviso: Este fichero es trabajo propio de su transcriptor y representa su interpretación personal de la canción. El material contenido en esta página es para exclusivo uso privado, por lo que se prohibe su reproducción o retransmisión, así como su uso para fines comerciales.