Read My Mind, The Killers (tablatura)

Autor: frankyer96 | 44276 visualizaciones



"I never really gave up on..." 2x (Palm Mute) 

|-------------------------------|
|-------------------------------|
|-------------------------------|
|9999999999999999999999997777777|
|9999999999999999999999997777777|
|-------------------------------|


"Can you read my mind..." 2x


|------------------------------------------------------------------------|
|------------------------------------------------------------------------|
|------------------------------------------------------------------------|
|-------12----------------------12----------------------12---------------|
|9-10-9----9-10-9--------9-10-9----9-10-9--------9-10-9----9-10-7--------|
|------------------------------------------------------------------------|

"The good old days...." 2x

|------------------------------------------------|
|-------------------------15-15-15-15-15-15-15-15|
|-16-16-16-16-16-16-16-16-14-14-14-14-14-14-14-14|
|-17-17-17-17-17-17-17-17------------------------|
|------------------------------------------------|
|-------------------------14-14-14-14-14-14-14-14|

|------------------------------------------------|
|---------------------------15---15---15---------|
|-14-14-14-14-14-14-14-14---14---14---14---------|
|-14-14-14-14-14-14-14-14---14---14---14---------|
|------------------------------------------------|
|-14-14-14-14-14-14-14-14---14---14---14---------|

On the third time, ending goes like this.. 
"Well I don't mind..."

|------------------------------------------------|
|-------------------------15-15-15-15-15-15-15-15|
|-16-16-16-16-16-16-16-16-14-14-14-14-14-14-14-14|
|-17-17-17-17-17-17-17-17------------------------|
|------------------------------------------------|
|-------------------------14-14-14-14-14-14-14-14|

|------------------------------------------------|
|------------------------------------------------|
|-14-14-14-14-16-16-16-16-19-19-19-19-16-16-16-16|
|-14-14-14-14-16-16-16-16-19-19-19-19-16-16-16-16|
|------------------------------------------------|
|------------------------------------------------|

|------------------------------------------------|
|------------------------------------------------|
|-16---14---12----------12-14---12---11----------|
|-16---14---12----------12-14---12---11----------|
|------------------------------------------------|
|------------------------------------------------|

"Its funny how you just break  down..." 2x (Palm Mute)

|-------------------------------|
|-------------------------------|
|-------------------------------|
|9999999999999999999999997777777|
|9999999999999999999999997777777|
|-------------------------------|

"Can you read my mind..." 2x
|------------------------------------------------------------------------|
|------------------------------------------------------------------------|
|------------------------------------------------------------------------|
|-------12----------------------12----------------------12---------------|
|9-10-9----9-10-9--------9-10-9----9-10-9--------9-10-9----9-10-7--------|
|------------------------------------------------------------------------|

"The teenage queen..." 2x

|------------------------------------------------|
|-------------------------15-15-15-15-15-15-15-15|
|-16-16-16-16-16-16-16-16-14-14-14-14-14-14-14-14|
|-17-17-17-17-17-17-17-17------------------------|
|------------------------------------------------|
|-------------------------14-14-14-14-14-14-14-14|

|------------------------------------------------|
|---------------------------15---15---15---------|
|-14-14-14-14-14-14-14-14---14---14---14---------|
|-14-14-14-14-14-14-14-14---14---14---14---------|
|------------------------------------------------|
|-14-14-14-14-14-14-14-14---14---14---14---------|

"Well I don't mind..."

|------------------------------------------------|
|-------------------------15-15-15-15-15-15-15-15|
|-16-16-16-16-16-16-16-16-14-14-14-14-14-14-14-14|
|-17-17-17-17-17-17-17-17------------------------|
|------------------------------------------------|
|-------------------------14-14-14-14-14-14-14-14|

|------------------------------------------------|
|------------------------------------------------|
|-14-14-14-14-16-16-16-16-19-19-19-19-16-16-16-16|
|-14-14-14-14-16-16-16-16-19-19-19-19-16-16-16-16|
|------------------------------------------------|
|------------------------------------------------|

|------------------------------------------------|
|------------------------------------------------|
|-16---14---12----------12-14---12---11----------|
|-16---14---12----------12-14---12---11----------|
|------------------------------------------------|
|------------------------------------------------|

Solo

"Can you read my mind..." 

|---------------------------------------------------|
|-15-15-15-15-15-15-15-15-10-10-10-10-10-10-10-10-10|
|---------------------------------------------------|
|---------------------------------------------------|
|---------------------------------------------------|
|---------------------------------------------------|

|------------------------------------------------|
|-8-8-10-10-7-7-8-8-5-7-5-7--7-7-7^7---5-7-5-7^7-|
|------------------------------------------------|
|------------------------------------------------|
|------------------------------------------------|
|------------------------------------------------|

|----------------------------------------------------|
|----------------------------------------------------|
|-11p7p9-9--7--6-7-9-7---12-12-12--14-14-14--16-16-16|
|----------------------------------------------------|
|----------------------------------------------------|
|----------------------------------------------------|

|--------------------------------------------------|
|-14-14-14--15-15-15--17-17-17^17^17^--------------|
|--------------------------------------------------|
|--------------------------------------------------|
|--------------------------------------------------|
|--------------------------------------------------|

"Slippin' in my faith" 2x

|------------------------------------------------|
|-------------------------15-15-15-15-15-15-15-15|
|-16-16-16-16-16-16-16-16-14-14-14-14-14-14-14-14|
|-17-17-17-17-17-17-17-17------------------------|
|------------------------------------------------|
|-------------------------14-14-14-14-14-14-14-14|

|------------------------------------------------|
|------------------------------------------------|
|-14-14-14-14-14-14-14-14-14-14-14-14-14-14-14-14|
|-14-14-14-14-14-14-14-14-14-14-14-14-14-14-14-14|
|------------------------------------------------|
|-14-14-14-14-14-14-14-14-14-14-14-14-14-14-14-14|

"She said I don't mind"

|------------------------------------------------------------------------|
|------------------------------------------------------------------------|
|------------------------------------------------------------------------|
|-9-9-9-9-9-9-9-9-7-7-7-7-7-7-7-7-5-5-5-5-5-5-5-5-12-12-12-12-12-12-12-12|
|-9-9-9-9-9-9-9-9-7-7-7-7-7-7-7-7-5-5-5-5-5-5-5-5-12-12-12-12-12-12-12-12|
|-7-7-7-7-7-7-7-7-5-5-5-5-5-5-5-5-3-3-3-3-3-3-3-3-10-10-10-10-10-10-10-10|

|----------------------------------------------------------------|
|----------------------------------------------------------------|
|----------------------------------------------------------------|
|-9-9-9-9-9-9-9-9-7-7-7-7-7-7-7-7-5-5-5-5-5-5-5-5-5-5-5-5-5-5-5-5|
|-9-9-9-9-9-9-9-9-7-7-7-7-7-7-7-7-5-5-5-5-5-5-5-5-5-5-5-5-5-5-5-5|
|-7-7-7-7-7-7-7-7-5-5-5-5-5-5-5-5-3-3-3-3-3-3-3-3-3-3-3-3-3-3-3-3|

"Ooooo..." 2x (Palm Mute)

|----------------|
|----------------|
|----------------|
|-------12-------|
|9-10-9----9-10-7|
|----------------|

"Can you read my mind" 2x

|------------------------------------------------------------------------|
|------------------------------------------------------------------------|
|------------------------------------------------------------------------|
|-------12----------------------12----------------------12---------------|
|9-10-9----9-10-9--------9-10-9----9-10-9--------9-10-9----9-10-7--------|
|------------------------------------------------------------------------|



Contact: edpajehth@yahoo.com



The Killers
Read My Mind solo
Tuning: down 1/2 step

so heres the solo. ill get the chords for the song up when i get a chance to tab it out, enjoy.

Solo
Eb|-----------------------------------------------------------|---------------------------------------|
Bb|-1515151515151515/1010101010101010-8-8-10-10-7-7-8-8-------|---------------------------------------|
Gb|-----------------------------------------------------9-11-9|11-9-11^-9-11-9-11^-9h11p9-/-7^-6-7-9-7|
Db|-----------------------------------------------------------|---------------------------------------|
Ab|-----------------------------------------------------------|---------------------------------------|
Eb|-----------------------------------------------------------|---------------------------------------|

              
|---------------------------------||
|888-10101010-121212^-1414141414^-||
|---------------------------------||
|---------------------------------||
|---------------------------------||
|---------------------------------||





Calificar esta versión:
Aviso: Este fichero es trabajo propio de su transcriptor y representa su interpretación personal de la canción. El material contenido en esta página es para exclusivo uso privado, por lo que se prohibe su reproducción o retransmisión, así como su uso para fines comerciales.