Long Cool Woman In A Black Dress, The Hollies (tablatura)

Autor: elguason | 45878 visualizaciones



Bueno este es el intro.




(1)----------------------------------------------------------------
(2)--------------------0-----0-------------------------------------
(3)------------------0-----0-----0---------------------------------
(4)-------0--5--5--4-----2-----0----0-----0-----0-----0-----0------
(5)---0-2--------------------------2----2-----0-----2-----0--------
(6)-0---------------------------------3-----2-----3-----5----------



-------------------------------------------------------------------
-------------2--2-----------2--2-----------------------------------
-------------2--2-----------2--2-----------------------------------
-2--4--5--4--------4--5--4-----------------------------------------
-2--4--5--4--------4--5--4-----------------------------------------
-------------------------------------------------------------------





Calificar esta versión:
Aviso: Este fichero es trabajo propio de su transcriptor y representa su interpretación personal de la canción. El material contenido en esta página es para exclusivo uso privado, por lo que se prohibe su reproducción o retransmisión, así como su uso para fines comerciales.