The Pedestrian, The Foxboro Hot Tubs (acordes)

Autor: mgreen_day | 24714 visualizaciones

a5amc5d5emg5


Intro:
G5 C5 D5
Em C5 D5

G5                     C5     D5
I don't need a reason to be a misfit
G5                    C5      D5
Whatever the reason, how far I'll go
Em                     C5     D5
When it's my time then I will let you know

G5 C5 D5

G5                     C5     D5
It don't take a genius to be an idiot
G5                     C5     D5
It don't take a jesus to save my soul
Em                     C5     D5           G5
When it's my time and it's my time to go

C5         G5
Pedestrian is what I Am
C5             G5
An understated samaritan
C5 G5
C5         G5
Where I go, I go alone
A5              D5        D5 [x2]
As long as I Am taking my time

G5                      C5    D5
I don't have the answer to be specific
G5                      C5    D5
I listened to reason, the reason is true
Em                      C5    D5
I take my time, well now it's time to go

G5 C5 D5

SOLO:

F#8 C#8 E#8 D#8

----------------------------------------------------------------------------------------
-----------------------6-5---8---8-7---10---12-12-12-13-12---8-8-10-10------------------
-0-0-0-4-0-0-5-0-0-7-------5---------7------12-12-12-12-12---9-9-11-11------------------
--------------------------------------------12-12-12-12-12------------------------------
----------------------------------------------------------------------------------------
----------------------------------------------------------------------------------------

G5 C5 D5

F#8 C#8 E#8 D#8

----------------------------------------------------------------------------------------
-----------------------6-5---8---8-7---10---12-12-12-13-12---8--8--8--10----------------
-0-0-0-4-0-0-5-0-0-7-------5---------7------12-12-12-12-12---9--9--9--11----------------
--------------------------------------------12-12-12-12-12---10-10-10-12----------------
----------------------------------------------------------------------------------------
----------------------------------------------------------------------------------------

G5 F#8

C5         G5
Pedestrian is what I am
C5             G5
An understated samaritan
C5 G5
C5         G5
Where I go, I go alone
A5              D5        D5 [x2]
As long as I Am taking my time

G5                      C5    D5
I don't have the answer to be specific
G5                      C5    D5
I listened to reason, the reason is true
Em                   C5       D5
I take my time, well now it's time to go
Em                   C5       D5
I take my time, well now it's time to go
Em                   C5       D5
I take my time, well now it's time to go





Comentarios del colaborador: Cualquier consulta me mandan un mail matygd@gmail.com

Calificar esta versión:
Aviso: Este fichero es trabajo propio de su transcriptor y representa su interpretación personal de la canción. El material contenido en esta página es para exclusivo uso privado, por lo que se prohibe su reproducción o retransmisión, así como su uso para fines comerciales.