Tom Waits, The Fall Of Troy (tablatura)

Autor: el_jvc | 25251 visualizaciones



G----------------------------------------------------|
D----------------------------------------------------|
A----------------------------------7--5--3-----------|
E-000878--000878--000878-----------------------------|

G------------------------------------------------------|
D----------------------------------7--5--3-------------|
A-000878--000878--000878-------------------------------|
E------------------------------------------------------|
TWICE

0:25
G-------------------------------------------------------------------------------------|
D-------3p5-2p4--------------------------------------------3p1h3p1h3p1----------------|
A-7X----------------------------------------55-11-------------------------------------|
E------------------------44----22-----------------------------------------------------|

G--------------------------------------------------------------------|
D-------3p5-2p4------------------------------------------------------|
A-7X----------------------------------------55-11--------------------|
E------------------------44----22------------------------------------|

G-------------------------------------------------------------------------------------|
D-------3p5-2p4--------------------------------------------3p1h3p1h3p1----------------|
A-7X----------------------------------------55-11-------------------------------------|
E------------------------44----22-----------------------------------------------------|

G-------------------------------------------------------------|
D-------3p5-2p4-----------------------------------------------|
A-7X----------------------------------------55----------------|
E------------------------44----22-----------------------------|

0:44 play this 4 times
G----------------------------------------------------------------------------------------|
D----------------------------------------------------------------------------------------|
A---7\-------0101--------7\-------0101----------7\------0101------------9\-----1---------|
E----------------------------------------------------------------------------------------|

1:04 play this 4 times
G----------------------------------------------------------------------------------------|
D----------------------------------------------------------------------------------------|
A--77\-------0101-------77\-------0101----------77\------0101------------9\-----1--------|
E----------------------------------------------------------------------------------------|

1:31
G----------------------------------------------------------------------------------------|
D---------------------------------------------------2-3----------------------------------|
A-5555-55-----0000-00--3333-33--2222-----------------------------------------------------|
E----------------------------------------------------------------------------------------|

G-------------------------------------------------------------------------------------|
D-----------------------------------13-13-10-10-11-11-12-12-9-9-----------------------|
A-5555-55----12121212-1212------------------------------------------------------------|
E-------------------------------------------------------------------------------------|

G----------------------------------------------------------|
D-----------------------------------------------------2-3--|
A-5555-55-----0000-00--3333-33--2222-----------------------|
E----------------------------------------------------------|

G---------------------------------------------------10-10-9-9---14-14-13-13--|
D----------------------------------------------------------------------------|
A-5555-55---------12-12-12-12----12-12---------------------------------------|
E----------------------------------------------------------------------------|

G--------------------------------------------------------------------------------------|
D--------------------------------------------------------------------------------------|
A-5-5-5-5-5-5-5----0-0-0-0-0-0-0--3-3-3-3-3-3-3--2-2-2-2-2-2-2-------------------------|
E--------------------------------------------------------------------------------------|

G----------------------------------------------------------------------------------------|
D-----------------------------------------------------------13-13-10-10-11-11-12-12-9-9--|
A-5-5-5-5-5-5-5------12-12-12-12-12-12-12------------------------------------------------|
E----------------------------------------------------------------------------------------|

G--------------------------------------------------------------------------|
D--------------------------------------------------------------------------|
A-5-5-5-5-5-5-5----0-0-0-0-0-0-0--3-3-3-3-3-3-3--2-2-2-2-2-2-2-------------|
E--------------------------------------------------------------------------|

G----------------------------------------------------------------10-10-9-9---14-14-13-13--|
D-----------------------------------------------------------------------------------------|
A-5-5-5-5-5-5-5------12-12-12-12-12-12-12-------------------------------------------------|
E-----------------------------------------------------------------------------------------|

2:04 4 times
G---------------------------------------------------------------------------------|
D---------------------------------------------------------------------------------|
A---7\-------0101--------7\-------0101----------7\------0101------------9\-----1--|
E---------------------------------------------------------------------------------|

2:23
G---------------------------------------------------------------------------------------|
D---------------------------------------------------------------------------------------|
A-9/---------1---------------9/----------------1--------------------9/---------------1--|
E---------------------------------------------------------------------------------------|

2:29
G-----------------------------------|
D-----------------------------------|
A-7-77--6-66--2-22--3-33------------| (2times)
E-----------------------------------|

G--------------------------------|
D--------------------------------|
A-77---66-----22-----33----------|
E--------------------------------|

G-------------------------------------------------------------------------|
D-------------------------------------------------------------------------|
A-7777-5-----7777-5-----------7777-5------------7777-5----------------77--|
E-------------------------------------------------------------------------|





Calificar esta versión:
Aviso: Este fichero es trabajo propio de su transcriptor y representa su interpretación personal de la canción. El material contenido en esta página es para exclusivo uso privado, por lo que se prohibe su reproducción o retransmisión, así como su uso para fines comerciales.