Young Crazes Peeling, The Distillers (tablatura)

Autor: Dark Link Uchiha | 22897 visualizaciones



Main Riff: 
e|---------------------------------| 
B|---------------------------------| 
G|---------------------------------| 
D|-----------------------5----5----| 
A|---5----5----3----3--333-3333----| 
E|-333-3333--111-1111--------------| 
 PM____________________________ 
 
Chorus: 
e|---------------------------------------| 
B|---------------------------------------| 
G|---------------------------------------| 
D|--------5-55555-5----------------------| 
A|-333333-3-33333-3-5-55555-5-555-4-3----| 
E|-111111-----------3-33333-3-333-2-1----| 
 
Bridge/Break 
                                     Play 1x 
e|------------------------------------------------| 
B|----------8-----8----8-----8----8-----17-17~----| 
G|----------7-----7----7-----7----7--15-17-17~----| 
D|-55-55-55----55---55----55---55----15-----------| 
A|------------------------------------------------| 
E|------------------------------------------------| 
 
      Play 2x 
e|----------------------------------| 
B|----8----8----8888-8-15-17-17~----| 
G|----7----7----7777-7-15-17-17~----| 
D|-55---55---55---------------------| 
A|----------------------------------| 
E|----------------------------------| 
 
      Play 1x 
e|-----------------------------------------| 
B|----8----8----8888-8-15-17-15--17~~------| 
G|----7----7----7777-7-15-17-15P-17~~------| 
D|-55---55---55----------------------------| 
A|-----------------------------------------| 
E|-----------------------------------------| 
 





[email protected]






Calificar esta versión:
Aviso: Este fichero es trabajo propio de su transcriptor y representa su interpretación personal de la canción. El material contenido en esta página es para exclusivo uso privado, por lo que se prohibe su reproducción o retransmisión, así como su uso para fines comerciales.