Imagination, The Cranberries (tablatura)

Autor: 49gradista | 28122 visualizaciones

e ----1----1----1----3--1 
b ----3----1----4----3--1
g ----3----2----5----3--2  los ultimos dos acordes
d ----3----3----5----5--3  son en un mismo compas
a ----1----3----3----5--3
e ----1----1----3----3--1

es cosa de q la escuhen para q vean como es el rasgeo

despues de cada coro va asi:

#slide

e [--------------------------------------------]
b [--------------------------------------------]
g [--------------------------------------------]
d [---------------3-3-3-3-3-5-3-1-1-1-1-1-3-1--]
a [-1-1-1-1-1-3-5------------------------------]
e [--------------------------------------------]

e [--------------------------------------------]
b [--------------------------------------------]
g [--------------------------------------------]
d [--------------------------------------------]
a [-3#5-3-3-3-5-3------------------------------]
e [--------------------------------------------]
Calificar esta versión:
Aviso: Este fichero es trabajo propio de su transcriptor y representa su interpretación personal de la canción. El material contenido en esta página es para exclusivo uso privado, por lo que se prohibe su reproducción o retransmisión, así como su uso para fines comerciales.