Casualties Army, The Casualties (bajo)

Autor: maty_punx | 34386 visualizaciones

--------------------------------------------------------------------------------------------
--------------------------------------------------------------------------------------------
--------------------------------------------------------------------------------------------
-----7--------------------------------------------------------------------------------------

--------------------------------------------------------------------------------------------
--------------------------------------------------------------------------------------------
--------------------2-------2------2--2--2--2--2----------2------2--2--2--2-----------------
-------------------------------------------------------------------------------------------- X 4
Todo esto se repite hasta el final
--------------------------------------------------------------------------------------------
--------------------------------------------------------------------------------------------
--------------------2-------2------2--2--2--2--0------------------------5-------------------
------------------------------------------------------------3-------3-----------------------

--------------------------------------------------------------------------------------------
--------------------------------------------------------------------------------------------
--------------------2-------2------2--2--2--2--5-------4-------0----------------------------
------------------------------------------------------------------------------4-------------

--------------------------------------------------------------------------------------------
--------------------------------------------------------------------------------------------
--------------------2-------2------2--2--2--2--0------------------------5-------------------
------------------------------------------------------------3-------3-----------------------

--------------------------------------------------------------------------------------------
----2------5------7------7------7------5------2------0--------------------------------------
--------------------------------------------------------------------------------------------
--------------------------------------------------------------------------------------------
Y el final es así
--------------------------------------------------------------------------------------------
----2------5------7------7------7------5------2------0--------------------------------------
--------------------------------------------------------------------------------------------
---------------------------------------------------------------------0----------------------


La guitarra repite todo esto hasta el final
------------------------------------------------------------------------------------------------------
------------------------------------------------------------------------------------------------------
-----------------------------------------7--------9---------9----9----9----9----9----9----------------
---9----9----9----9----7----5------------7--------9---------9----9----9----9----9----9----------------
---9----9----9----9----7----5------------5--------7---------7----7----7----7----7----7----------------
---7----7----7----7----5----3-------------------------------------------------------------------------
Y el final termina así
-----------------------------------------------------------------------------------------------------------------
-----------------------------------------------------------------------------------------------------------------
-----------------------------------------7--------9---------9----9----9----9----9----9---------------------------
---9----9----9----9----7----5------------7--------9---------9----9----9----9----9----9--------------2------------
---9----9----9----9----7----5------------5--------7---------7----7----7----7----7----7--------------2------------
---7----7----7----7----5----3-----------------------------------------------------------------------------0------
Calificar esta versión:
Aviso: Este fichero es trabajo propio de su transcriptor y representa su interpretación personal de la canción. El material contenido en esta página es para exclusivo uso privado, por lo que se prohibe su reproducción o retransmisión, así como su uso para fines comerciales.