Unconditional (solo), The Bravery (tablatura)

Autor: fherxo | 40353 visualizaciones



e|0---2-3--5--3-5-2-3-0-2---0----------------------------------------------|
B|------------------------3---0--3------------0----------------------------|
G|---------------------------------2---0---2------2---0-2---0-----------2-4|
D|--------------------------------------------------------4---2-4-0-2-4----|
A|-------------------------------------------------------------------------|
E|-------------------------------------------------------------------------|

e|-17----15-14--15---17----15-14---|
B|----17----------------17------17-|
G|---------------------------------| X2
D|---------------------------------|
A|---------------------------------|
E|---------------------------------|





Calificar esta versión:
Aviso: Este fichero es trabajo propio de su transcriptor y representa su interpretación personal de la canción. El material contenido en esta página es para exclusivo uso privado, por lo que se prohibe su reproducción o retransmisión, así como su uso para fines comerciales.