Fearless, The Bravery (acordes)

Autor: fherxo | 18463 visualizaciones



chorus
e|--------------------------------------------------------------------------|
B|-------------------------5-5----------------------------------------------|
G|-4-4--x--7-7--x--2-2--x--4-4--x-------------------------------------------|
D|-4-4--x--7-7--x--2-2--x--2-2--x-------------------------------------------|
A|-2-2--x--5-5--x--0-0--x-------x-------------------------------------------|
E|--------------------------------------------------------------------------|
verse x16 each           :play the last note 8 times:
e|-----------------|--------------------------------------------------------|
B|-----------------|--------------------------------------------------------|
G|----4-----4------|---4----------------------------------------------------|
D|-5--4--5--4--7--5|---4----------------------------------------------------|
A|-5--2--5--2--7--5|---2----------------------------------------------------|
E|-3-----3-----5--3|--------------------------------------------------------|
begining of solo
e|----------------------------------------------------------------------------|
B|----------------------------------------------------------------------------|
G|-9b-9b-9p8p7---7-9b-9b-9p8p7------------------------------------------------|
D|-------------9--------------------------------------------------------------|
A|----------------------------------------------------------------------------|
E|----------------------------------------------------------------------------|


| /  slide up
| \  slide down
| h  hammer-on
| p  pull-off
| ~  vibrato
| +  harmonic
| x  Mute note





Calificar esta versión:
Aviso: Este fichero es trabajo propio de su transcriptor y representa su interpretación personal de la canción. El material contenido en esta página es para exclusivo uso privado, por lo que se prohibe su reproducción o retransmisión, así como su uso para fines comerciales.