Bad Sun, The Bravery (bajo)

Autor: fherxo | 33923 visualizaciones



INTRO/VERSE

G|---------------------------------------------------------------|
D|----7-------7-------7-------7-------7-------7-------7-------7--|
A|---------------------------------------------------------------|
E|5-------5-------5-------5-------5-------5-------5-------5------|

G|----9-------9-------9-------9-------9-------9-------9-------11-|
D|---------------------------------------------------------------|
A|7------7-------7-------7-------7-------7-------7-------9-------|
E|---------------------------------------------------------------|

G|----12-------12-------12------12-----12------4------5------6--|
D|--------------------------------------------------------------|
A|10------10------10------10------10------2------3------4-------|
E|--------------------------------------------------------------|

G|-----7--------7-------7-------7--------7--------------------------|
D|----------------------------------------------4---------5-------6-|
A|5-------5-------5-------5-------5---------------------------------|
E|-----------------------------------------2--------3-------4-------|


CHORUS

G|----------------------------------------------------------------|
D|-----9------9-------9-------9--------12------12-------12-----12-|
A|----------------------------------------------------------------|
E|7------7-------7-------7-------10-------10------10-------10-----|

G|-----------------------------------------------------------------|
D|-----7--------7--------7--------7-------7-------7-------7------7-|
A|-----------------------------------------------------------------|
E|5-------5--------5--------5--------5-------5-------5-------5-----|





Calificar esta versión:
Aviso: Este fichero es trabajo propio de su transcriptor y representa su interpretación personal de la canción. El material contenido en esta página es para exclusivo uso privado, por lo que se prohibe su reproducción o retransmisión, así como su uso para fines comerciales.