Blinded In Fire, The Blaqk Year (tablatura)

Autor: david_pxndx | 27921 visualizaciones



Intro
Guitarra 1
e|-14-------------------------------------------141414----------14------|
B|----17-15-15-17-15----------------------15-17--------17-15-17----1717-|
G|-------------------15----------16-------------------------------------|
D|----------------------16-17-19----16-19-------------------------------|
A|----------------------------------------------------------------------|
E|----------------------------------------------------------------------|
Continuación:
e|-14-------------------------------------------141414-15-12-|
B|----17-15-15-17-15----------------------15-17--------------|
G|-------------------15----------16--------------------------|
D|----------------------16-17-19----16-19--------------------|
A|-----------------------------------------------------------|
E|-----------------------------------------------------------|


Guitarra 2
e|---------------------------------------------|
B|---------------------------------------------|
G|---------------------------------------------|
D|------------------------7777777--------------|
A|------9999999--5555555--5555555--7777--4444--|
E|-2/7--7777777--3333333-----------5555--2222--|x2 I la ultima nota antez del verso ez G


Verso 1
e|----------------------------------------|
B|----------------------------------------|
G|----------------------------------------|
D|-------------------7777777--------------|
A|-9999999--5555555--5555555--7777--4444--|
E|-7777777--3333333-----------5555--2222--|x4 I la ultima nota antez del verso ez G


Coro 
e|------------------------------|
B|------------------------------|
G|------------------------------|
D|-77777------------------------|
A|-55555--77777--99999--555-777-|
E|--------55555--77777--333-555-|x4

Luewo inztrumental
Guitarra 1
e|-14-------------------------------------------141414----------14------|
B|----17-15-15-17-15----------------------15-17--------17-15-17----1717-|
G|-------------------15----------16-------------------------------------|
D|----------------------16-17-19----16-19-------------------------------|
A|----------------------------------------------------------------------|
E|----------------------------------------------------------------------|
Continuación:
e|-14-------------------------------------------141414-15-12-|
B|----17-15-15-17-15----------------------15-17--------------|
G|-------------------15----------16--------------------------|
D|----------------------16-17-19----16-19--------------------|
A|-----------------------------------------------------------|
E|-----------------------------------------------------------|


Guitarra 2
e|---------------------------------------------|
B|---------------------------------------------|
G|---------------------------------------------|
D|------------------------7777777--------------|
A|------9999999--5555555--5555555--7777--4444--|
E|-2/7--7777777--3333333-----------5555--2222--|x2

Verso 2
e|----------------------------------------|
B|----------------------------------------|
G|----------------------------------------|
D|-------------------7777777--------------|
A|-9999999--5555555--5555555--7777--4444--|
E|-7777777--3333333-----------5555--2222--|x4 I la ultima nota antez del verso ez G

Coro 
e|------------------------------|
B|------------------------------|
G|------------------------------|
D|-77777------------------------|
A|-55555--77777--99999--555-777-|
E|--------55555--77777--333-555-|x4


Intermedio
Mueno zto todavía no lo zaqo xD pero quando lo logre zaqar mientras zolo zubo lo d la otra guitarra
e|----------------------------------------------------------------------|
B|----------------------------------------------------------------------|
G|----------------------------------------------------------------------|
D|----------------------------------------------------------------------|
A|-99999--44444--99999--44444--99999--44444-555555-5-4------------------|
E|-77777--22222--77777--22222--77777--22222-333333-3-2------------------|
   |p.m|  |p.m|  |p.m|  |p.m|  |p.m|  |p.m|       |p.m|     


e|----------------------------------------|
B|----------------------------------------|
G|----------------------------------------|
D|-------------------7777777--------------|
A|-9999999--5555555--5555555--7777--4444--|
E|-7777777--3333333-----------5555--2222--|x4 I la ultima nota antez del verso ez G


Coro 
Ezte ultimo coro empieza kn un levante en laz primeraz 2vueltaz i kn alwo d p.m.
e|------------------------------|
B|------------------------------|
G|------------------------------|
D|-77777------------------------|
A|-55555--77777--99999--555-777-|
E|--------55555--77777--333-555-|x4


I termina en:
e|---|
B|---|
G|---|
D|-9-|
A|-9-|
E|-7-|


Letra:
In a quiet little town,
Where the children
Used to pay
They would fight till
The dark and the 
Down of the day

Happy lives and omit 
And happy lives are
What I?m seeing  
No one could escape

From the fire and the
Flames and the sorrow
That remains
We were searching  for
The answer, but got flooded by 
The rain in a moment what
Goes out is just
What I am repaying
They all went insane

Tell me something 
I don?t know and 
where my life will go next
Promise me all the things you
Show me and how to save the
Pain that lives inside your soul
We?ll never regain for
We are left with just one choice
But don?t look down now

Past the noise that criticized 
They were blinded by the fires
Leaving ashes our
Walls serving fire the dark

Running forward sinking
Backward  singing
Sorrow on our words
Could never reach our destiny 
Only god could ever
Says us but our time will not 
Arrange us maybe all we ever
Needed was a leader for the club
We are not going to heaven 
We are all going to hell
Time can only tell

Tell me something 
I don?t know and 
where my life will go next
Promise me all the things you
Show me and how to save the
Pain that lives inside your soul
We?ll never regain for
We are left with just one choice
But don?t look down now x2

Mueno pz ezo ez todo zpero q lez zirva ammm ezta ez mi primer tab d Blaqk year xD mueno correcciones dudaz i cualqier pregunta zqribanme [email protected]





Calificar esta versión:
Aviso: Este fichero es trabajo propio de su transcriptor y representa su interpretación personal de la canción. El material contenido en esta página es para exclusivo uso privado, por lo que se prohibe su reproducción o retransmisión, así como su uso para fines comerciales.