Otro Día Más, Tercer Mundo (tablatura)

Autor: Anónimo | 42479 visualizaciones



Bien, esta es mi primera transcripción en el gran
mundo de Atame, quiza no es una canción muy conocida,
pero su letra, refleja mi historia, espero que la
disfruten, y que no busquen en el lugar equivocado...
LESA esta canción es para tí...


G
Una vez más

Sigo en la misma vereda
Em
Una vez igual

Mordiendome la lengua
    C
Pensando en lo que no te dije
Cm7
En lo que debí decirte.
    G
Pensando en como debi hacer
   D
Y como fue



  G
Todo me salio mal

Todo lo planeado
Em
Todo por buscar

En el lugar equivocado
C
Todo se perdió
Cm7
Todo a desaparecido
G
Por querer mezclar
     D
Mi amor con tu amistad



PRE-CORO:
Bm               C
Mis dias eran mejores
  Cm7                 Bm
cuando sabia de tí
              C
la vida no me es amable hoy
             Cm7
y no lo va a ser...



        G
CORO:   Otro día más

        fué lo que necesitamos
        Em
        otro día más

        tomados de la mano
        C
        solo un día más

        hablando de mil cosas
           D
        jugando con tu ropa

        que nunca logré quitar
        G
        otro día más

        perdidos en las calles
        Em
        solo un día más

        para abrir tu corazón
          D
        y no ser solo yo
           C                Cm7
        el tonto que se enamoró...



SOLO:

Em - Em7 - G - Am - C - D - G




La velocidad

con la que pasa el tiempo

y la soledad

con la que paso mis días

todo se puede arreglar

solo tienes que acercarte

y pasar conmigo

solo otro día más



PRE-CORO


CORO 1


CORO 2  Guitarra 1: Acordes
        Guitarra 2: Outro


OUTRO:

   G                     Em            C                 D
E|---------------------------------------------------------------------|
B|-7p8-7------7p8-7------7p8-7---------------------------7v--8v--8/10v-|
G|-------7-0.-------7-0.-------7-0--0.-------------7v-9v---------------|
D|-------------------------------------7v--9v--10v---------------------|
A|---------------------------------------------------------------------|
E|---------------------------------------------------------------------|

   G                         Em              D        C       Cm7
E|---------------------------------------------------------------------|
B|-7p8-7--------7p8-7--------7p8-7-------------------------------------|
G|-------7-0.---------7-0.---------7-0--0.----------------7v--8vv------|
D|-------------------------------------------7v--9v--10v---------------|
A|---------------------------------------------------------------------|
E|---------------------------------------------------------------------|



Un saludo gigante para todos los que me conocen en Manta
y Quito - Ecuador, y no se olviden que cualquier duda,
inquietud, sugerencia o petición, pueden escricirme a mi
mail: danny_cis@yahoo.com





Calificar esta versión:
Aviso: Este fichero es trabajo propio de su transcriptor y representa su interpretación personal de la canción. El material contenido en esta página es para exclusivo uso privado, por lo que se prohibe su reproducción o retransmisión, así como su uso para fines comerciales.