The Metal, Tenacious D (tablatura)

Autor: MASTER GUITAR | 23521 visualizaciones

e|-----------------------------------------------------------x-----| 
b|-----------------------------------------------------------x-----| 
g|-----------------------------------------------------------x-----| 
d|-2---------------------------------2-----------------------x-----| 
a|-2------------3p2p0h2p0-2h3p2p0----2-------------3p2p0h2---x-----| 
e|-0-00--3^p0-0----------------------0-00--3^p0-0------------x-----| 
PM   ..                                .. 

e|-----------------------------------------------------------------| 
b|-----------------------------------------------------------------| 
g|-----------------------------------------------------------------| x1 Intro 
d|-2---------------------------------3-3--5p3p2h3p2p0h2p0-2h3p2p0--| x4 Verse 
a|-2------------3p2p0h2p0-2h3p2p0----3-3---------------------------| 
e|-0-00--3^p0-0----------------------1-1---------------------------| 

PM   .. 

e|----------------------------| 
b|----------------------------| 
g|----------------------------| 
d|-2----------22--------------| x2 
a|-2----------22--------------| 
e|-0-00--3^p0-00--------------| 
PM   .. 

e|-----------------------------------------------------------------| 
b|-----------------------------------------------------------------| 
g|--9--7--9--7--9--10---9--7--9--7--12-11-10-----------------------| 
d|--9--7--9--7--9--10---9--7--9--7--12-11-10-----------------------| x2 
a|--7--5--7--5--7--8----7--5--7--5--10-9--8------------------------| 
e|-----------------------------------------------------------------| 


Bridge 
    Em   D    C     Em   D    C 
e|--7----5----3-----7----5----3-------------| 
b|--8----7----5-----8----7----5-------------| 
g|--9----7----5-----9----7----5-------------| 
d|--9----7----5-----9----7----5---4-2-0-2---| 
a|--7----5----3-----7----5----3---5-3-2-3---| 
e|------------------------------------------| 

    C    Bm   Em    C    Bm   Em 
e|--8----7----7-----8----7----0-------------| 
b|--8----7----8-----8----7----0-------------| 
g|--9----7----9-----9----7----0-------------| 
d|--10---9----9-----10---9----2-------------| 
a|--10---9----7-----10---9----2-------------| 
e|--8----7----------8----7----0-------------| 


{INTRO/VERSE RIFF} x5 


CARA AKI COMPLICA SUA VIDA + TENTA FAZE 

Breakdown/Outro 
e|--------------------------------| 
b|--------------------------------| 
g|--------------------------------| 
d|--------------------------------| x2 
a|------------/3-2--/6-5--/9-8----| 
d|--0-----------------------------| 
   (let ring) 

e|---------------------------------------------| 
b|---------------------------------------------| 
g|---------------------------------------------| 
d|--0-0-----10-9---0--0------------------------| x2 
a|--0-0-----10-9---0--0------2h3p2p0-2p0-------| 
d|--0-0--0--10-9---0--0--2p0-------------3p2---| 
PM       . 

    |3| |3|       |3| |3|       |3| |3| 
e|-----------------------------------------------------------------| 
b|-----------------------------------------------------------------| 
g|-----------------------------------------------------------------| 
d|-----------3-2-----------2-3-------------------------------------| x2 
a|-----------3-2-----------2-3-----------/3-2--/6-5--/9-8----------| 
d|--000-000--3-2--000-000--2-3--000-000----------------------------| 
PM  ... ...       ... ...       ... ... 


e|-----------------------------------------------------------------| 
b|-----------------------------------------------------------------| 
g|-----------------------------------------------------------------| 
d|-----------------------------------------------------------------| x2 
a|------3p0-2p0-------------0---------------3p2p0-------0-----0----| 
d|--2p0---------0-2-2h3p2p0-0---------0h2-3-------0-2h3---3p2-0----|

Comentarios del colaborador: psss aki dejando una nueva cancion con todo y banda incluida =) XD ;X

Calificar esta versión:
Aviso: Este fichero es trabajo propio de su transcriptor y representa su interpretación personal de la canción. El material contenido en esta página es para exclusivo uso privado, por lo que se prohibe su reproducción o retransmisión, así como su uso para fines comerciales.