Belzeboss (the Final Showdown), Tenacious D (tablatura)

Autor: elpeineta | 44818 visualizaciones

Bueno,este es un resumen de todo lo que hay dando vueltas.si encontras esta cancion,siempre es pura tablatura o si queres 
los acordes (que es lo que mas se usa en esta banda) solo te ponen los de las partes acusticas.
en fin,aca pongo las partes del diablo y las de tenacious d en su orden  debido ;)


Intro:
    B5              C5              D5              E5
e|------------------------------------------------------------------|
B|------------------------------------------------------------------|
G|--4--4-4-4-4-4-4--5--5-5-5-5-5-5--7--7-7-7-7-7-7--9--9-9-9-9-9-9--|
D|--4--4-4-4-4-4-4--5--5-5-5-5-5-5--7--7-7-7-7-7-7--9--9-9-9-9-9-9--|
A|--2--2-2-2-2-2-2--3--3-3-3-3-3-3--5--5-5-5-5-5-5--7--7-7-7-7-7-7--|
E|------------------------------------------------------------------|

    F#5 (M)                G5 (M)                A5 (M)
e|-----------------------------------------------------------------------|
B|-----------------------------------------------------------------------|
G|--11--11-11-11-11-11-11--12--12-12-12-12-12-12--14--14-14-14-14-14-14--|
D|--11--11-11-11-11-11-11--12--12-12-12-12-12-12--14--14-14-14-14-14-14--|
A|--9---9--9--9--9--9--9---10--10-10-10-10-10-10--12--12-12-12-12-12-12--|
E|-----------------------------------------------------------------------|

    A#5 (M)
e|------------------------------------------------|-------------|
B|------------------------------------------------|-------------|
G|--15-15--15-15-15-15--15-15-15-15--15-15-15-15--|--15---------|
D|--15-15--15-15-15-15--15-15-15-15--15-15-15-15--|--15--(x24)--|
A|--13-13--13-13-13-13--13-13-13-13--13-13-13-13--|--13---------|
E|------------------------------------------------|-------------|

Verso del diablo:
e|----------------------------|----------------------------------
B|----------------------------|----------------------------------
G|---------------------(x2)---|--------------------------------x2
D|----------------------------|----------------------------------
A|--8-7--x-x-x--x-x-----------|--8-7--x-x--7-8--x-x--8-7--x-x-x--
E|--6-5--x-x-x--x-x-----------|--6-5--x-x--5-6--x-x--6-5--x-x-x--

e|----------------------------|-------------------------------|
B|----------------------------|-------------------------------|
G|---------------------(x2)---|-------------------------------|
D|----------------------------|----------------------------8--|
A|--8-7--x-x-x--x-x-----------|--8-7--x-x--7-8--x-x--8-7-5-6--|
E|--6-5--x-x-x--x-x-----------|--6-5--x-x--5-6--x-x--6-5-3----|

Kyle y Jack lo desafian:
Primera parte acustica [0:42]
      B      D      F#                G
[JB]  Waaait Waaait Waaait you mother-fucker
      G            D        A 
      we challenge you to a rock off,
      G           D                   A 
[Ambos]Give us one chance to rock your socks off

El diablo responde y acepta:
e|------------------|--------------------------------------------------|
B|------------------|--------------------------------------------------|
G|--16/-----16/-----|--------------------------------------------------|
D|--16/-----16/-----|--4--4-4-4-4-4-4-4-4-4--7--7-7-7------------(x3)--|
A|--14/-----14/-----|--2--2-2-2-2-2-2-2-2-2--5--5-5-5--4--4-4-4--------|
E|------------------|----------------------------------2--2-2-2--------|

La banda dice lo que pasa si ganan (segunda parte acustica) [1:24]
      E
[JB]  If we win,
      E                  Am                  E
      you must take your sorry ass back to hell
      E                 Am   F  C   G   A 
      and also you will have to pay our rent
El diablo pregunta por su parte:

 Am
      AND WHAT IF I WIN?

Y Jack responde:
          G               [sigan rasgueando...
[JB]  Then you can take Kage back to hell..
[KG]  What!?
[JB]  Trust me kage it's the only way
[KG]  What the fuck are you talkin about?
            ...]        C
[JB]  To be your little bitch

Empieza el duelo (parte del diablo)

e|--------------------|----------------------------|
B|--------------------|----------------------------|
G|--------------------|--5--4--7--6--9--8--12--11--| x3
D|--4--x-x-x-x--(x4)--|--x--x--x--x--x--x--x---x---|
A|--2--x-x-x-x--------|--3--2--5--4--7--6--10--9---|
E|--------------------|----------------------------|

	El "Tasty Riff" que el diablo toca
e|----7-------------7--------------------------|
B|----7-7-7-10-7-10---10-7-----------------10b-|
G|--9b---------------------9h10-10p9p7---------|
D|-------------------------------------7-9-----|
A|---------------------------------------------|
E|---------------------------------------------|

        "I'm the Devil, I can do what I want..."
e|--------------------|--------------------|
B|--------------------|--------------------|
G|--4~----7~----------|--------------------|
D|--4~----7~----4~----|--4--x-x-x-x--(x4)--|
A|--2~----5~----4~----|--2--x-x-x-x--------|
E|--------------2~----|--------------------|

e|-----------------------------------------------------|
B|-----------------------------------------------------|
G|-----------------------------------------------------|
D|--4-4-4-4-4-4-4-4--7-7-7-7-7-7-7-7-------------------|
A|--2-2-2-2-2-2-2-2--5-5-5-5-5-5-5-5--4-4-4-4-4-4-4-4--|
E|------------------------------------2-2-2-2-2-2-2-2--|

e|--------------------|------|
B|--------------------|------|
G|--------------------|------|
D|--4--x-x-x-x--(x4)--|--7~--|
A|--2--x-x-x-x--------|--5~--|
E|--------------------|------|

Jack y Kyle la siguen...

Tercer parte acustica [3:03]

Tenacious D:
[JB]  NOOOO! c'mon Kage bring the thunder
                      Gm                             Bb
[KG]  There's just no way that we can win that was a masterpeice
[JB]  Listen to me-
                  D                              Gm
[KG]  He rocks to hard because he's not a mortal man
[JB]  God dammit Kage,
                 Gm
      he's gonna make you his sex slave,
                 Bb
      your gonna gargle Mayonnaise
[KG]  Noo
                D                          Gm
[JB]  Unless we bust a massive monster mamajam
[KG]  Dude,
            Gm
      we've been through so much shit
         Eb
[JB]  De-activated lasers with my dick
      Bb                                D
[BOTH]Now it's time to blow this fucker down

      Gm
[JB]  c'mon Kage now it's time to blow doors down
      Eb                         Bb           F
[KG]  I hear you Jables now it's time to blow doors down
      Gm
[JB]  Light up the stage cuz its time for a showdown
      Eb                             Bb         F
[KG]  We'll bend you over then we'll take ya to brown town
      Gm
[BOTH]Now we've got to blow this fucker down
      Eb                       Bb          F
[KG]  He's gonna rape me if we do not blow doors down
      Gm
[JB]  C'mon Kage cuz it's time to blow doors down
      Eb               Bb           F
[KG]  OOOOOOh [?] It's time for the black out

Esta es la parte donde entra la guitarra electrica distorsionada, solo toquen los acordes de quinta con un poco de "Palm Muting"
             Gm              D
[JB]  Hey educationer, Beelzeboss,
                   Bb                  D
      we know your weakness our rocket-sauce
                  Gm                     D
      we rock the cassbaw, and blow your mind
                Bb                   D
      we will defeat you, for all mankind
                   Gm                   D
      you hold the scepter, we hold the key
                  Bb                F
      you are the devil, we are the D
                 Gm            D
[BOTH]We are the D,We are the D
                 Bb            F
      We are the D,We are the D
                Gm             D
      We are the D,We are the D
                 Bb            F
      We are the D,We are the D
                Gm             D     [En esta parte se vuelven locos :D ]
      We are the D,We are the D
                 Bb            F
      We are the D,We are the D
                Gm             D
      We are the D,We are the D
                 Bb            F    Termina en G
      We are the D,We are the D

Comentarios del colaborador: Bueno ,espero que la publquen y que les guste.tuve que traducir unas cosas y recolectar informacion de todos lados.Salu2!

Calificar esta versión:
Aviso: Este fichero es trabajo propio de su transcriptor y representa su interpretación personal de la canción. El material contenido en esta página es para exclusivo uso privado, por lo que se prohibe su reproducción o retransmisión, así como su uso para fines comerciales.