I Love To Change The World, Ten Years After (tablatura)

Autor: sonac32 | 35943 visualizaciones

Que onda gente
pues aqui subiendo esta bonita rolita 
que ami en lo personal me gusta mucho
espero les guste esta version =D

INTRO (X2)
1)-----------------------3-------------------------------------|
2)-------------------------0---------1-------------1---------0-|
3)-------0-------------0-----------2-------------0---0-----2---| 
4)-----2-------------0-----------2-------------2---------1-----|
5)---2-------------2-----------0-------0-1-2-3---------2-------|
6)-0-------0-1-2-3-----------3---------------------------------|

ACORDES UTILIZADOS
  Em   G   A   C   B7
1)-0-|-3-|-5-|-0-|-2-|
2)-0-|-3-|-5-|-1-|-0-|
3)-0-|-4-|-6-|-0-|-2-|
4)-2-|-5-|-7-|-2-|-1-|
5)-2-|-5-|-7-|-3-|-2-|
6)-0-|-3-|-5-|-3-|-0-|

Em       G                    A
Everywhere is freaks and hairys 
                C  B7
Dykes and fairies Tell me where is sanity?

1)-----------------------3-------------------------------------|
2)-------------------------0---------1-------------1---------0-|
3)-------0-------------0-----------2-------------0---0-----2---| 
4)-----2-------------0-----------2-------------2---------1-----|
5)---2-------------2-----------0-------0-1-2-3---------2-------|
6)-0-------0-1-2-3-----------3---------------------------------|

Em         G               A
Tax the rich, feed the poor
              C  B7
Till we run out, rich no more 


1)-----------------------3-------------------------------------|
2)-------------------------0---------1-------------1---------0-|
3)-------0-------------0-----------2-------------0---0-----2---| 
4)-----2-------------0-----------2-------------2---------1-----|
5)---2-------------2-----------0-------0-1-2-3---------2-------|
6)-0-------0-1-2-3-----------3---------------------------------|

1)-----------------------3-------------------------------------|
2)-------------------------0---------1-------------1---------0-|
3)-------0-------------0-----------2-------------0---0-----2---| 
4)-----2-------------0-----------2-------------2---------1-----|
5)---2-------------2-----------0-------0-1-2-3---------2-------|
6)-0-------0-1-2-3-----------3---------------------------------|
I'd love to change the world          But I don't know what to do

1)-----------------------3-------------------------------------|
2)-------------------------0---------1-------------1---------0-|
3)-------0-------------0-----------2-------------0---0-----2---| 
4)-----2-------------0-----------2-------------2---------1-----|
5)---2-------------2-----------0-------0-1-2-3---------2-------|
6)-0-------0-1-2-3-----------3---------------------------------|
                                       So I'll leave it up to you

1)-----------------------3-------------------------------------|
2)-------------------------0---------1-------------1---------0-|
3)-------0-------------0-----------2-------------0---0-----2---| 
4)-----2-------------0-----------2-------------2---------1-----|
5)---2-------------2-----------0-------0-1-2-3---------2-------|
6)-0-------0-1-2-3-----------3---------------------------------|

Em        G                 A
Population, keeps on breedin'
             C   B7
Nation bleedin', still more feedin'

1)-----------------------3-------------------------------------|
2)-------------------------0---------1-------------1---------0-|
3)-------0-------------0-----------2-------------0---0-----2---| 
4)-----2-------------0-----------2-------------2---------1-----|
5)---2-------------2-----------0-------0-1-2-3---------2-------|
6)-0-------0-1-2-3-----------3---------------------------------|
     Economy

Em          G                 A
Life is funny, skies are sunny
              C  B7
Bees made honey, who needs money?

1)-----------------------3-------------------------------------|
2)-------------------------0---------1-------------1---------0-|
3)-------0-------------0-----------2-------------0---0-----2---| 
4)-----2-------------0-----------2-------------2---------1-----|
5)---2-------------2-----------0-------0-1-2-3---------2-------|
6)-0-------0-1-2-3-----------3---------------------------------|
     Monopoly

1)-----------------------3-------------------------------------|
2)-------------------------0---------1-------------1---------0-|
3)-------0-------------0-----------2-------------0---0-----2---| 
4)-----2-------------0-----------2-------------2---------1-----|
5)---2-------------2-----------0-------0-1-2-3---------2-------|
6)-0-------0-1-2-3-----------3---------------------------------|
I'd love to change the world

1)-----------------------3-------------------------------------|
2)-------------------------0---------1-------------1---------0-|
3)-------0-------------0-----------2-------------0---0-----2---| 
4)-----2-------------0-----------2-------------2---------1-----|
5)---2-------------2-----------0-------0-1-2-3---------2-------|
6)-0-------0-1-2-3-----------3---------------------------------|
                                      But I don't know what to do

1)-----------------------3-------------------------------------|
2)-------------------------0---------1-------------1---------0-|
3)-------0-------------0-----------2-------------0---0-----2---| 
4)-----2-------------0-----------2-------------2---------1-----|
5)---2-------------2-----------0-------0-1-2-3---------2-------|
6)-0-------0-1-2-3-----------3---------------------------------|
                                       So I'll leave it up to you

1)-----------------------3-------------------------------------|
2)-------------------------0---------1-------------1---------0-|
3)-------0-------------0-----------2-------------0---0-----2---| 
4)-----2-------------0-----------2-------------2---------1-----|
5)---2-------------2-----------0-------0-1-2-3---------2-------|
6)-0-------0-1-2-3-----------3---------------------------------|

Oh, yeah!¡!¡!¡ 

SOLO: Em ? G ? A ? C ? B7 (X4)

Em            G                      A
More pollutions, there's no solutions
           C  B7
Restitution, mass confusions

Em             G
Spread the word
            A
Rich or poor
            C   B7
Save the earth Stop the war

1)-----------------------3-------------------------------------|
2)-------------------------0---------1-------------1---------0-|
3)-------0-------------0-----------2-------------0---0-----2---| 
4)-----2-------------0-----------2-------------2---------1-----|
5)---2-------------2-----------0-------0-1-2-3---------2-------|
6)-0-------0-1-2-3-----------3---------------------------------|

1)-----------------------3-------------------------------------|
2)-------------------------0---------1-------------1---------0-|
3)-------0-------------0-----------2-------------0---0-----2---| 
4)-----2-------------0-----------2-------------2---------1-----|
5)---2-------------2-----------0-------0-1-2-3---------2-------|
6)-0-------0-1-2-3-----------3---------------------------------|

1)-----------------------3-------------------------------------|
2)-------------------------0---------1-------------1---------0-|
3)-------0-------------0-----------2-------------0---0-----2---| 
4)-----2-------------0-----------2-------------2---------1-----|
5)---2-------------2-----------0-------0-1-2-3---------2-------|
6)-0-------0-1-2-3-----------3---------------------------------|
I'd love to change the world          But I don't know what to do

1)-----------------------3-------------------------------------|
2)-------------------------0---------1-------------1---------0-|
3)-------0-------------0-----------2-------------0---0-----2---| 
4)-----2-------------0-----------2-------------2---------1-----|
5)---2-------------2-----------0-------0-1-2-3---------2-------|
6)-0-------0-1-2-3-----------3---------------------------------|
                                      So I'll leave it up to you

1)-----------------------3-------------------------------------|
2)-------------------------0---------1-------------1---------0-|
3)-------0-------------0-----------2-------------0---0-----2---| 
4)-----2-------------0-----------2-------------2---------1-----|
5)---2-------------2-----------0-------0-1-2-3---------2-------|
6)-0-------0-1-2-3-----------3---------------------------------|

1)-----------------------3-------------------------------------|
2)-------------------------0---------1-------------1---------0-|
3)-------0-------------0-----------2-------------0---0-----2---| 
4)-----2-------------0-----------2-------------2---------1-----|
5)---2-------------2-----------0-------0-1-2-3---------2-------|
6)-0-------0-1-2-3-----------3---------------------------------|

1)-----------------------3-------------------------------------|
2)-------------------------0---------1-------------1---------0-|
3)-------0-------------0-----------2-------------0---0-----2---| 
4)-----2-------------0-----------2-------------2---------1-----|
5)---2-------------2-----------0-------0-1-2-3---------2-------|
6)-0-------0-1-2-3-----------3---------------------------------|
I'd love to change the world          But I don't know what to do

1)-----------------------3-------------------------------------|
2)-------------------------0---------1-------------1---------0-|
3)-------0-------------0-----------2-------------0---0-----2---| 
4)-----2-------------0-----------2-------------2---------1-----|
5)---2-------------2-----------0-------0-1-2-3---------2-------|
6)-0-------0-1-2-3-----------3---------------------------------|
                                       So I'll leave it up to you

1)-----------------------3------------------------------------->
2)-------------------------0---------1-------------1---------0->
3)-------0-------------0-----------2-------------0---0-----2---> 
4)-----2-------------0-----------2-------------2---------1----->
5)---2-------------2-----------0-------0-1-2-3---------2------->
6)-0-------0-1-2-3-----------3--------------------------------->

1)------0-|
2)-----0--|
3)----0---|
4)---2----|
5)--2-----|
6)-0------|

GRACIAS MEXICOOOOOOOOOOOOOOOO!!!!!!!!
Calificar esta versión:
Aviso: Este fichero es trabajo propio de su transcriptor y representa su interpretación personal de la canción. El material contenido en esta página es para exclusivo uso privado, por lo que se prohibe su reproducción o retransmisión, así como su uso para fines comerciales.