Ven A La Eternidad, Templo (tablatura)

Autor: rouses-black | 30613 visualizaciones

Simbolos
b:bend
r:release
~:vibrato
^:ligado
/:slide
bar:palanca
*:armónico de pua

Intro

e|------------------------------------------------------
B|--8b-8~-6-5-------------------------------------------
G|------------7-5-7-5~---7-10-9-10^9^7-------7-9/10-9~--
D|---------------------8---------------8~-10------------
A|------------------------------------------------------
E|------------------------------------------------------

e|---------------------------------------------------------------
B|-8b-8~-6-5-----------------------------------------------------
G|-----------7-5-7-5~--------------------------------------------
D|--------------------8-7------7---------------------------------
A|------------------------10-8---10-8-7-10-8-7----8-7------------
E|---------------------------------------------10-----10-8-8/10~-

e|------------------------------------------------------
B|--8b-8~-6-5-------------------------------------------
G|------------7-5-7-5~---7-10-9-10^9^7-------7-9/10-9~--
D|---------------------8---------------8~-10------------
A|------------------------------------------------------
E|------------------------------------------------------

e|------------------------------------------------------|
B|--8b-8~-6-5-------------------------------------------|
G|------------7-5-7~-5-3^5^3^5^3^5^3^5^3-2-3^5-3~bar----|
D|------------------------------------------------------|
A|------------------------------------------------------|
E|------------------------------------------------------|

Se que estas arto de sentirte
e|--------------------------------|
B|--------------------------------|
G|--2-----4-------5-------7---5~--|
D|--2-----4-------5-------7---5~--|
A|----0-0---0-0-0---0-0-0---0-----|
E|--------------------------------|

Solo entre tanta gente
e|-------------------------------|
B|-------------------------------|
G|--2-----4----------------------|
D|--2-----4-------3-5-3----------|
A|----0-0---0-0-0-------2-3-5~~--|
E|-------------------------------|

Y de andar por mil caminos
e|--------------------------------|
B|--------------------------------|
G|--2-----4-------5-------7---5~--|
D|--2-----4-------5-------7---5~--|
A|----0-0---0-0-0---0-0-0---0-----|
E|--------------------------------|

Que confunden tu mente
e|----------------------------|
B|----------------------------|
G|----------------------------|
D|--3------------5------------|
A|--3------------5-----5-3-2--|
E|--1------------3------------|

Se que ya a nadie le interesa
e|--------------------------------|
B|--------------------------------|
G|--2-----4-------5-------7---5~--|
D|--2-----4-------5-------7---5~--|
A|----0-0---0-0-0---0-0-0---0-----|
E|--------------------------------|

Saber como te sientes
e|-------------------------------|
B|-------------------------------|
G|--2-----4----------------------|
D|--2-----4-------3-5-3----------|
A|----0-0---0-0-0-------2-3-5~~--|
E|-------------------------------|

Porque el mundo esta perdido
e|--------------------------------|
B|--------------------------------|
G|--2-----4-------5-------7---5~--|
D|--2-----4-------5-------7---5~--|
A|----0-0---0-0-0---0-0-0---0-----|
E|--------------------------------|

En su propia oscuridad
e|--------------------|
B|--------------------|
G|--------------------|
D|--3------------5----|
A|--3------------5----|
E|--1------------3----|

Pero podés confiar en mi
e|--------------------------------------------------
B|--------------------------------------------------
G|--------------------------------------------------
D|--10---7-------------5-----------6-5-----5^7^5----
A|--8----5-------------5-----------6-5-----------7--
E|---------------------3-3-3-3-3-3-4-3-3-3----------

A donde vayas estaré
e|--------------------------------
B|--------------------------------
G|--------------------------------
D|--10--7-------------5-----------
A|--8---5-------------5-----------
E|--------------------3-3-3-3-3-3-

Esperandoté..
e|---------------------------------
B|---------------------------------
G|---------------------------------
D|--9------------------------------
A|--7-8-7-8-7*~--------2-3-5-5-3-2-
E|--------------3-4~-3-------------

Ven a la eternidad
e|-----------
B|-----------
G|-----------
D|--2--5--5--
A|--0--3--5--
E|--------3--

Si puedes creer
e|--------------
B|--------------
G|--------------
D|-----2--------
A|--2--0-2-3-2--
E|--0--------0--

Que yo soy la vida
e|---------------------------
B|---------------------------
G|------5/7-7/9-9-7-5-5-4-4--
D|--3------------------------
A|--3---3/5-5/7-7-5-3-3-2-2--
E|--1------------------------

No moriras jamás
e|-----------
B|-----------
G|-----------
D|--2--5--5--
A|--0--3--5--
E|--------3--

Porque yo vencí
e|--------------
B|--------------
G|--------------
D|-----2--------
A|--2--0-2-3-2--
E|--0--------0--

En la cruz la muerte
e|----------------------------------
B|----------------------------------
G|------5/7-7/9-9-7-5-5-4-4---------
D|--3-------------------------------
A|--3---3/5-5/7-7-5-3-3-2-2--5-3-2--
E|--1-------------------------------

Conozco el hambre y la sed
e|------------------------------------------
B|------------------------------------------
G|------------------------------------------
D|--------10-------9---------7---------7-5--
A|--8-8-8---8-8-8-8--8-8-8-8---8-8-8-8------
E|------------------------------------------

La injusticia y el dolor
e|------------------------------------------
B|------------------------------------------
G|------------------------------------------
D|--------10-------9---------7---------7-5--
A|--8-8-8---8-8-8-8--8-8-8-8---8-8-8-8------
E|------------------------------------------

e|--------------------------------------------
B|--------------------------------------------
G|--------------------------------------------
D|--7-----7---------5-------------------------
A|--5-5-5---5-5-5-5---5-5-5-5-8-7-5-8*-7-5-7--
E|--------------------------------------------

Se quiene sos...
e|------------------------------------
B|------------------------------------
G|------------------------------------
D|------------------------------------
A|--7-7-8-7-7-10-7-7-7-10-7-7-8-7-8---
E|------------------------------------

Como estas...
e|-------------------------------------
B|-------------------------------------
G|-------------------------------------
D|-------------------------------------
A|--7-7-8-7-7-10-7-7-7-10-7-7-8-8-7-8--
E|-------------------------------------

Aquí estoy...
e|------------------------------------
B|------------------------------------
G|------------------------------------
D|------------------------------------
A|--7-7-8-7-7-10-7-7-7-10-7-7-8-7-8---
E|------------------------------------

Aquí estooyyyy
e|-----------------|
B|-----------------|
G|-----------------|
D|---------7--5-4--|
A|--7------5--3-2--|
E|--0-bar----------|

Solo
e|----------------------------------------------------------
B|-----------------------------------------------------8~~--
G|--7/9-7---------------------------------------7-9-10------
D|--------10-7---------------------------7-9-10-------------
A|-------------10-7------8~-7-----7-8-10--------------------
E|------------------10-8-------10---------------------------

e|------------------------------
B|------------------------------
G|--10-9-7-9-10-9b(10)-9r^7-5~--
D|------------------------------
A|------------------------------
E|------------------------------

e|--------------------------------------------------------------
B|--5^6-t13^8^5-t13^5-t15^8^5-t15^5-t13^8^5-t13^5-t12^8^5-t12^5-
G|--------------------------------------------------------------
D|--------------------------------------------------------------
A|--------------------------------------------------------------
E|--------------------------------------------------------------

e|------------------------------------------------------------
B|--5/12-t13^12-t13^12-t13^10-t13^10-t13^8-t13^8-t13^6-t13^6--
G|------------------------------------------------------------
D|------------------------------------------------------------
A|------------------------------------------------------------
E|------------------------------------------------------------

e|--------8---------------------------------------------------
B|--5---5---5-------------------------------------------------
G|----7-------7-5-4^5^4-2----------5/7-7/9-9--9-109-97-7------
D|------------------------------------------------------------
A|------------------------5-3-2----3/5-5/7-7--7-87-75-5-------
E|------------------------------5-----------------------------

e|----------------------------------------------------
B|--------------------13-12-13-15-13^15^13^12^13------
G|--14-12^14^12^14^12----------------------------14~--
D|----------------------------------------------------
A|----------------------------------------------------
E|----------------------------------------------------

e|-----------------------------------------
B|--13-12^13^12---------10-8^10^8----------
G|--------------14----------------10-------
D|-----------------14*---------------10~~--
A|-----------------------~-----------------
E|-----------------------------------------

e|-----12-15^12----12-15^12----10-13^10----10-13^10--
B|--13----------13----------12----------12-----------
G|---------------------------------------------------
D|---------------------------------------------------
A|---------------------------------------------------
E|---------------------------------------------------

e|-----8-12^8----8-12^8---7-10^7---7-10^7-------
B|--10--------10--------9--------9--------10~~--
G|----------------------------------------------
D|----------------------------------------------
A|----------------------------------------------
E|----------------------------------------------

e|----------------------------------17b-16^17^16-14----14~~--
B|--8^10-8-6-5-6-8-6~bar--------17~-----------------17-------
G|------------------------10/13~-----------------------------
D|-----------------------------------------------------------
A|-----------------------------------------------------------
E|-----------------------------------------------------------

Ven a la eternidad
e|------------
B|------------
G|------------
D|--4--7--7---
A|--2--5--7---
E|--------5---

Si puedes creer
e|----------------
B|----------------
G|----------------
D|--4--4----------
A|--4--2-4-5------
E|--2--------2~~--

Que yo soy la vida
e|------------------------------
B|------------------------------
G|------7/9-9/11-11--9-7-7-6-6--
D|--5---------------------------
A|--5---5/7-7/9--9---7-5-5-4-4--
E|--3---------------------------

No moriras jamás
e|------------
B|------------
G|------------
D|--4--7--7---
A|--2--5--7---
E|--------5---

Porque yo vencí
e|----------------
B|----------------
G|----------------
D|--4--4----------
A|--4--2-4-5------
E|--2--------2~~--

En la cruz la muerte
e|------------------------------
B|------------------------------
G|------7/9-9/11-11--9-7-7-6-6--
D|--5---------------------------
A|--5---5/7-7/9--9---7-5-5-4-4--
E|--3---------------------------


Ven a la eternidad
e|------------
B|------------
G|------------
D|--4--7--7---
A|--2--5--7---
E|--------5---

Si puedes creer
e|----------------
B|----------------
G|----------------
D|--4--4----------
A|--4--2-4-5------
E|--2--------2~~--

Que yo soy la vida
e|------------------------------
B|------------------------------
G|------7/9-9/11-11--9-7-7-6-6--
D|--5---------------------------
A|--5---5/7-7/9--9---7-5-5-4-4--
E|--3---------------------------

No moriras jamás
e|------------
B|------------
G|------------
D|--4--7--7---
A|--2--5--7---
E|--------5---

Porque yo vencí
e|----------------
B|----------------
G|----------------
D|--4--4----------
A|--4--2-4-5------
E|--2--------2~~--

En la cruz la muerte
e|------------------------------
B|------------------------------
G|------7/9-9/11-11--9-7-7-6-6--
D|--5---------------------------
A|--5---5/7-7/9--9---7-5-5-4-4--
E|--3---------------------------

e|--------------------------------------------------
B|----------------------------------5br~-3-2--------
G|-------------------------------------------4-2-4*-
D|--------------------------------------------------
A|--2-0-0-2-5-2-0-2*-0-0-------5--------------------
E|-----------------------3-3-2---2------------------

e|-------------------------------------------------------
B|-------------------------------------------------------
G|-------------------------------------------------------
D|----------------------------------5-4-5----------------
A|--2-0-0-2-5-2-0-2*-0-0-------5----5-4-5--------5-4-0---
E|-----------------------3-3-2---2--3-2-3--2-3-5---------

e|--------------------------------------------------
B|----------------------------------5br~-3-2--------
G|-------------------------------------------4-2-4*-
D|--------------------------------------------------
A|--2-0-0-2-5-2-0-2*-0-0-------5--------------------
E|-----------------------3-3-2---2------------------


e|-------------------------------------------------------
B|-------------------------------------------------------
G|-------------------------------------------------------
D|----------------------------------5-4-5----------------
A|--2-0-0-2-5-2-0-2*-0-0-------5----5-4-5--------5-4-0---
E|-----------------------3-3-2---2--3-2-3--2-3-5---------

e|--------------------------------------------------
B|----------------------------------5br~-3-2--------
G|-------------------------------------------4-2-4*-
D|--------------------------------------------------
A|--2-0-0-2-5-2-0-2*-0-0-------5--------------------
E|-----------------------3-3-2---2------------------


e|-------------------------------------------------------
B|-------------------------------------------------------
G|-------------------------------------------------------
D|----------------------------------5-4-2-2--4-4-4~------
A|--2-0-0-2-5-2-0-2*-0-0-------5----5-4-0-0--2-2-2~-bar--
E|-----------------------3-3-2---2--3-2------------------

Comentarios del colaborador: Bueno espero q esta cancion les sirva como me sirvio a mi. Que Dios los bendiga.

Calificar esta versión:
Aviso: Este fichero es trabajo propio de su transcriptor y representa su interpretación personal de la canción. El material contenido en esta página es para exclusivo uso privado, por lo que se prohibe su reproducción o retransmisión, así como su uso para fines comerciales.