Niño Payaso, Tabare Cardozo (tablatura)

Autor: Anónimo | 45923 visualizaciones

Niño Payaso

1/--15-14-12----/-----------/----------/----------/
2/-----------15-/--13-12----/-------12-/-12-13-15-/
3/--------------/--------14-/-12-14----/----------/
4/--------------/-----------/----------/----------/
5/--------------/-----------/----------/----------/
6/--------------/-----------/----------/----------/

1/--15-14-12----/-----------/----------/
2/-----------15-/--13-12----/----------/
3/--------------/--------14-/-12-14-12-/
4/--------------/-----------/----------/
5/--------------/-----------/----------/
6/--------------/-----------/----------/

Bueno aca les dejo la parte del punteo que me faltaba

Intro:SOL DO RE SOL x6

Todo el tema lleva los acordes SOL DO RE SOL

SOl         DO          RE           SOL
Brillan los retazos de mi traje de fantoche

Giran en la noche mentirosa de cartón

Cuidan mis espaldas peligrosos querubines

Viejos borrachines que me dan su bendición



Se abren las puertas de la razón

Baja del cielo sube al camión

Niño payaso se abre el telón

Luz del tablado constelación



Tengo una moneda de hojalata en el bolsillo

Y el trigo amarillo de tu pelo como un sol

Guarda tus silencios y mis lágrimas la luna

Tuve la fortuna de tener tu corazón



Se abren las puertas de la razón

Baja del cielo sube al camión

Niño payaso se abre el telón

Luz del tablado constelación



Traigo cicatrices de batallas que he perdido

Pruebas que el destino me guardaba para hoy

Tengo la cabeza de mis viejos enemigos

Brindan hoy conmigo por hacerme como soy



Se abren las puertas de la razón

Baja del cielo sube al camión

Niño payaso se abre el telón

Luz del tablado constelación



Tengo una paloma, una vela y una pluma

Y el amor en una carta que está por llegar

Rumbo al horizonte y antes de emprender el vuelo

Cuelgo de tu cielo una estrella federal



Se abren las puertas de la razón

Baja del cielo sube al camión

Niño payaso se abre el telón

Luz del tablado constelación

LOS PUNTEOS SE TOCAN ARRIVA DE LOS ACORDES BASE SOL-DO-RE-SOL
Por cualquier consulta envienme un mail a matdanubio@hotmail.com
Los punteos los estoy sacando despues lo mando
Calificar esta versión:
Aviso: Este fichero es trabajo propio de su transcriptor y representa su interpretación personal de la canción. El material contenido en esta página es para exclusivo uso privado, por lo que se prohibe su reproducción o retransmisión, así como su uso para fines comerciales.