Meant To Live, Switchfoot (tablatura)

Autor: tiger-81 | 39266 visualizaciones

Bueno esta es la primera cancion que suboo ha este sitio ya que soy principiante pero creo que he mejorado mucho bueno diganlo ustedes y hai les va este gran tema:

s: deslisar el dedo
v: vibrar la cuerda


intro:
e-------------------------------------------------------
b-------------------------------------------------------
g-------------------------------------------------------
D-------5s6s5v--------5s6s5v-------5s6s5v---------------
A-3-3-3---------1-1-1---------------------0-0-0-0-2-2---
E----------------------------1-1-1---------------------- x2


**o si quieren lo pueden hacer de esta forma:

e-----------------------------------------------------------
b-----------------------------------------------------------
g-4-4-4-----------2-2-2-------------------------------------
D-4-4-4--5s6s5v---2-2-2--5s6s5v----------5s6s5v--5-5-5-7-7-7
A-2-2-2---------------------------2-2-2----------5-5-5-7-7-7
E---------------------------------2-2-2----------3-3-3-5-5-5 x2


FUMBLING HIS CONFIDENCE AND WONDERING
WHY THE WORLD HAS PASSED HIM BY.

e-------------------------------------------------
b-------------------------------------------------
g-------------------------------------------------
D-4-0-2-0-4-0-0-4-0-0-2-0-4-5-4-------------------
A-------------------------------------------------
E-------------------------------------------------

HOPING THAT HE'S BENT FOR MORE
THAN ARGUMENTS AND FAILED ATTEMPTS TO FLY.
e-------------------------------------------------
b-------------------------------------------------
g-------------------------------------------------
D-4-0-2-0-4-0-0-4-0-0-2-0-4-5-4-------------------
A-------------------------------------------------
E-------------------------------------------------
**despues de esto biene el coro que se los devo
CHORUS:
WE WERE MEANT TO LIVE FOR SO MUCH MORE.
HAVE WE LOST OURSELVES?
SOMEWHERE WE LIVE INSIDE.
WE WERE MEANT TO LIVE FOR SO MUCH MORE.
HAVE WE LOST OURSELVES?
SOMEWHERE WE LIVE INSIDE.
** aca despues del coro va el otravez el riff del verso que es:
e-------------------------------------------------
b-------------------------------------------------
g-------------------------------------------------
D-4-0-2-0-4-0-0-4-0-0-2-0-4-5-4-------------------
A-------------------------------------------------
E-------------------------------------------------


DREAMING ABOUT PROVIDENCE AND
WHETHER MICE AND MEN HAVE SECOND TRIES.
e-------------------------------------------------
b-------------------------------------------------
g-------------------------------------------------
D-4-0-2-0-4-0-0-4-0-0-2-0-4-5-4-------------------
A-------------------------------------------------
E-------------------------------------------------

MAYBE WE'VE BEEN LIVING WITH OUR EYES HALF OPEN.
MAYBE WE'RE BENT AND BROKEN.
e-------------------------------------------------
b-------------------------------------------------
g-------------------------------------------------
D-4-0-2-0-4-0-0-4-0-0-2-0-4-5-4-------------------
A-------------------------------------------------
E-------------------------------------------------


** en esta parte va el coro denuevo
CHORUS:
WE WERE MEANT TO LIVE FOR SO MUCH MORE.
HAVE WE LOST OURSELVES?
SOMEWHERE WE LIVE INSIDE.
WE WERE MEANT TO LIVE FOR SO MUCH MORE.
HAVE WE LOST OURSELVES?
SOMEWHERE WE LIVE INSIDE!!
**aca cuando acava el coro buelbe a sonar el intro
e-----------------------------------------------------------
b-----------------------------------------------------------
g-4-4-4-----------2-2-2-------------------------------------
D-4-4-4--5s6s5v---2-2-2--5s6s5v----------5s6s5v--5-5-5-7-7-7
A-2-2-2---------------------------2-2-2----------5-5-5-7-7-7
E---------------------------------2-2-2----------3-3-3-5-5-5 x2


WE WANT MORE THAN THIS WORLD'S GOT TO OFFER.
WE WANT MORE THAN THIS WORLD'S GOT TO OFFER.
WE WANT MORE THAN THE WARS OF OUR FATHERS.
AND EVERYTHING INSIDE SCREAMS FOR SECOND LIFE . YEAH!!!!

CHORUS:
WE WERE MEANT TO LIVE FOR SO MUCH MORE.
HAVE WE LOST OURSELVES?
WE WERE MEANT TO LIVE FOR SO MUCH MORE.
HAVE WE LOST OURSELVES?
WE WERE MEANT TO LIVE FOR SO MUCH MORE.
HAVE WE LOST OURSELVES?
WE WERE MEANT TO LIVE.
WE WERE MEANT TO LIVE.
** en el final suena el intro a medias asi que hagan esto:
e----------------------------------
b----------------------------------
g-4-4-4-----------2-2-2------------
D-4-4-4--5s6s5v---2-2-2--5s6s5v----
A-2-2-2---------------------------2
E---------------------------------2

bueno espero que la saquen y les guste ha y cualquier correccion o error pues la escriben, pero comenten que deseo saber que tal me quedo
y pues por si alguna cosa mi correo es iriesman_rb@hotmail.com
Calificar esta versión:
Aviso: Este fichero es trabajo propio de su transcriptor y representa su interpretación personal de la canción. El material contenido en esta página es para exclusivo uso privado, por lo que se prohibe su reproducción o retransmisión, así como su uso para fines comerciales.