Supersubmarina, Supersubmarina (acordes)

Autor: Anónimo | 17499 visualizaciones

abddoefamgmi5mi6mi7mi9sim


Intro: punteo

e-----------------------------------------------------------------------
B-----------------------------------------------------------------------
G-----7-7-7---7-7-7---7-7-7---7-7-7---7-7-7----7-7-7---7-7-7----7-7-7---
D----7-7-7---7-7-7---7-7-7---7-7-7---7-7-7-7--7-7-7---7-7-7-7--7-7-7----
A--5-------4------------------------------------------------------------
E------------------7-------5-------3----------------3-------------------


Punteo     / Llego al sitio y no me aguanto
de la      / se que tendre el cielo entre mis manos
intro      / aparento estar tranquilo y en el fondo se que estoy
           / temblando, temblando

     A partir de aquí son rasgueos con las siguientes notas.
     [La canción queda mejor si utilizas pal-mute]

    E A D G B E
Mi1 - 5 7 7 - -
Mi2 - 4 7 7 - -
Mi3 7 - 7 7 - -
Mi4 5 - 7 7 - -
Mi5 3 2 - x x x
Mi6 3 2 4 x x x
Mi7 5 4 - x x x
Mi8 6 5 - x x x
Mi9 - - 7 7 - -
Do1 - 3 2 - - -
Do2 - 3 2 - - 2
Sim 2 2 4 4 3 2
Fam 2 4 4 3 2 2
Re1 - - - 2 3 2
Re2 - - - 2 3 3

Mi1            Mi2
y voy despacio tanto tiempo a

Mi3             Mi4                  Mi5 Mi6 Mi5 Mi6
que se acorte entre nosotros el espacio

Mi5          Mi7        Mi8         Mi9
esta sensación será mejor calmarla, con un poco de

Mi1            Mi2         Mi3             Mi4
aire porque en esta asignatura llevo ya mas de...

Do1       Do2  Do1         Do2
susususususu   sususususususususpenso

Sim      Fam         Do1   Do2
sitesite site sirve de algo

Sim           Fam             Do1  Do2
que note note note que has llegado

Sim               Fam              Do1  Do2
que note ques estarás siempre a mi lado

Sim              Fam         Do1  Do2
yo mientras seguiré aqui sentado

       Re1 Re2 Re1 Re2
como no....

   /Do1 Do2 Do1 Do2../

Con rasgueos:

e-----------------------------------------------------------------------
B-----------------------------------------------------------------------
G-----7-7-7---7-7-7---7-7-7---7-7-7---7-7-7----7-7-7---7-7-7----7-7-7---
D----7-7-7---7-7-7---7-7-7---7-7-7---7-7-7-7--7-7-7---7-7-7-7--7-7-7----
A--5-------4------------------------------------------------------------
E------------------7-------5-------3----------------3-------------------

Mi1            Mi2
y ahora que te veo noto

Mi3             Mi4                  Mi5 Mi6 Mi5 Mi6
que me estoy separando del suelo del suelo

Mi1            Mi2
y flotando entre la gente

Mi3            Mi4               Mi5 Mi6 Mi5 Mi6
inconsciente voy hasta tu encuentro

Mi5        Mi7          Mi8          Mi9
lentamente mi planeta se hace hetereo y viajo a un mundo

Mi1                Mi2        Mi3        Mi4
en el que no existe otra cosa que no seaaa


Do1       Do2  Do1         Do2
susususususu   sususususususu su cuerpo

Sim      Fam         Do1   Do2
sitesite site sirve de algo

Sim           Fam             Do1  Do2
que note note note que has llegado

Sim               Fam              Do1  Do2
que note ques estarás siempre a mi lado

Sim              Fam         Do1  Do2
yo mientras seguiré aqui sentado

       Re1 Re2 Re1 Re2
como no....

      /Do1 Do2 Do1 Do2...Sim Fam [Do1] Sim Fam/

Sim               Fam              Do1  Do2
que note ques estarás siempre a mi lado

Sim              Fam         Do1  Do2
yo mientras seguiré aqui sentado


como....

Do1       Do2  Do1         Do2         Do1       Do2
susususususu   sususususususususpenso  suspenso

Do1       Do2  Do1         Do2           Do1       Do2
susususususu   sususususususu su cuerpo  su cuerpo


  /Do/





Calificar esta versión:
Aviso: Este fichero es trabajo propio de su transcriptor y representa su interpretación personal de la canción. El material contenido en esta página es para exclusivo uso privado, por lo que se prohibe su reproducción o retransmisión, así como su uso para fines comerciales.