En Mis Venas, Supersubmarina (tablatura)

Autor: Anónimo | 39495 visualizaciones



El riff inicial se repite durante las estrofas
donde los acordes están entre paréntesis.

     F              Dm            Am           Dm
e|----------------------------------------------------------|
B|----------------------------------------------------------|
G|--------9~..----------9~..----------9~..----------9~..----|
D|----10-----------10-------------10-----------10-----------|
A|--8----8----------------------0----0----------------------|
E|---------------10--10----------------------10--10---------|

(F)               (Dm)
Ahora da la sensación
                         (Am)   (Dm)
de que todo esta en mis venas,
(F)               (Dm)
Circulando en mi interior
                  (Am)   (Dm)
retorciendo mis arterias


(mismo riff pero sin dejar sonar la última nota, si no haciendo arpegio rápido)

        F                      Dm
e|-----------------------------------------------|
B|-----------------------------------------------|
G|--------9----9----9-------------9----9----9----|
D|---10----10---10---10-------10---10---10---10--|
A|-8----8----8----8----8-------------------------|
E|--------------------------10--10--10---10---10-|

        Am                    Dm
e|-----------------------------------------------|
B|-----------------------------------------------|
G|---------9---9---9-------------9----9----9-----|
D|----10----10--10--10-------10---10---10---10---|
A|--0----0----0---0---0--------------------------|
E|-------------------------10--10--10---10---10--|


F                  Dm
Se quedó grabado a hierro
                     Am     F
en las yemas de mis dedos,
F                  Dm
protegiéndome del roce
                     Am     F
del contacto con tu cuerpo


      C    C/B    Em    F
e|-------------------------|
B|-------------------------|
G|-------------------------|
D|----------------9-----10-|
A|----10----10----7-----8--|
E|----8-----7--------------|


C       C/B       Em
Porque nada vale nada
       F           C
en un lado o en el otro
C       C/B        Em
se equilibra la balanza
         F
y duele todo, tanto todo.

F                   G
En un lado todo el daño,
                    C
todo lo bueno en el otro.
                     F
Pero tú nunca en el centro,
            F
siempre haciendo algún destrozo.

F                G
Y ya no puedo coserme,
                    C
reinventarme ni quererme.
                  F
Ha sido todo tan raro,
      F
sucedió todo tan fuerte.

Ahora da la sensación
de que todo está en mis venas.
Ley de la gravitación,
y al caerme me repongo.
Proyectándome hacia el cielo,
busco aire, encuentro polvo.

Porque nada vale nada
en un lado o en el otro.
Se equilibra la balanza
y duele todo, tanto todo.

En un lado todo el daño,
todo lo bueno en el otro.
Pero tú nunca en el centro,
siempre haciendo algún destrozo.

Y ya no puedo coserme,
reinventarme ni quererme.
Ha sido todo tan raro,
sucedió todo tan fuerte...


-dedicado a... ella sabe quién-





Calificar esta versión:
Aviso: Este fichero es trabajo propio de su transcriptor y representa su interpretación personal de la canción. El material contenido en esta página es para exclusivo uso privado, por lo que se prohibe su reproducción o retransmisión, así como su uso para fines comerciales.