Thanks For Nothing, Sum 41 (tablatura)

Autor: leo_bemol | 45544 visualizaciones

Intro (Clean Guitar) 
e|-----------------------------------| 
B|-----------------------------------| 
G|--77--33------55--77--33------5~~--| 
D|--77--33--33--55--77--33--33--5~~--| 
A|--55--11--33--33--55--11--33--3~~--|  X2 
E|----------11--------------11-------| 
 
Riff 1 
e|----------------------------------------| 
B|----------------------------------------| 
G|----------------------------------------| 
D|--0-2-3-3-----2-3-3---2-3-3--5-5-3-2----| 
A|----------1-1------------------------3--|  X2 
E|--------------------1-------------------| 
 
Riff 1 (Guitar 2) 
e|-----------------------| 
B|-----------------------| 
G|--7777-3333------5555--| 
D|--7777-3333-3333-5555--| 
A|--5555-1111-3333-3333--|  X2 
E|------------1111-------| 
 
Riff 2 
e|-------------------| 
B|-------------------| 
G|--7--3-3---5-55-5--| 
D|--7--3-3-3-5-55-5--| 
A|--5--1-1-3-3-33-3--|  X2 
E|---------1---------| 
               ## 
 
Prechorus  
e|--------------------------| 
B|--------------------------| 
G|--77777-33333-------55555-| 
D|--77777-33333-33333-55555-| 
A|--55555-11111-33333-33333-|  X2 
E|--------------11111-------| 
 
Chorus 
e|--------------------------| 
B|--------------------------| 
G|--77777-33333-------55555-| 
D|--77777-33333-33333-55555-| 
A|--55555-11111-33333-33333-|  X2 
E|--------------11111-------| 
 
------------------------- 
| Riff 1 (Both Guitars) | 
| Riff 2                | 
| Prechorus             | 
| Chorus                | 
------------------------- 
 
Interlude 
e|---------------| 
B|---------------| 
D|-7~--10-5~-----| 
G|-7~--xx-5~-5-3-| 
A|-5~---8-3~-5-3-|  X2 
E|-----------3-1-| 
 
Interlude Part 2 (Guitar 1) 
e|------------------------------------------------------------------------| 
B|------------------------------------------------------------------------| 
G|---------------------------55-5-55-5---------------------------555-555--| 
D|--2h3-3p2-5p3-2h3-2h3-3p2--55-5-55-5--2h3-3p2-5p3-2h3-2h3-3p2--555-555--| 
A|---------------------------33-3-33-3---------------------------333-333--|  X4 
E|------------------------------------------------------------------------| 
                             ##   ##                             ### ### 
Interlude Part 2 (Guitar 2) 
e|---------------------------------------------------------------------------| 
B|---------------------------------------------------------------------------| 
G|--77777777-33333333----------55-5-55-5--77777777-33333333----------555-555-| 
D|--77777777-33333333-33333333-55-5-55-5--77777777-33333333-33333333-555-555-| 
A|--55555555-11111111-33333333-33-3-33-3--55555555-11111111-33333333-333-333-|  X4 
E|--------------------11111111------------------------------11111111---------| 
    ######## ######## ######## ##   ##    ######## ######## ######## ### ### 
 
 
Interlude (Last part from guitar 1) ( The last time Dave Brownsound 
plays Interlude Part two he changes the riff, to higher notes) 
 
e|--------------------------| 
B|--------------------------| 
G|--------------------------| 
D|--------------------------| 
A|--5h7-7p5-8p7-5h7-5h7-7p5-|  X1 
E|--------------------------| 
 
------------------------- 
| Chorus                | 
| Riff 1 (Both Guitars) | 
------------------------- 
Calificar esta versión:
Aviso: Este fichero es trabajo propio de su transcriptor y representa su interpretación personal de la canción. El material contenido en esta página es para exclusivo uso privado, por lo que se prohibe su reproducción o retransmisión, así como su uso para fines comerciales.