Noots, Sum 41 (tablatura)

Autor: Iñigo17 | 45570 visualizaciones



Sum 41
Noots

Intro  
Guitar1 
----9?-9--9--9-9---10-10-10-1010-| x2 
---10-10-10-1010---10-10-10-1111-| 
---11-11-11-1010---11-11-11-1111-| 
---------------------------------| 
---------------------------------| 
---------------------------------| 
Palm Muted
 
Riff1  
Guitar1 
----9?-9--9--9-9---10-10-10-1010---7-7-7-77--7-7-77-| x2 
---10-10-10-1010---10-10-10-1111---9-9-9-99--9-9-99-| 
---11-11-11-1010---11-11-11-1111---9-9-9-99--9-9-99-| 
----------------------------------------------------| 
----------------------------------------------------| 
----------------------------------------------------| 
Palm Muted

Guitar2 
----------------------------------------| x2 
----------------------------------------| 
----------------------------------------| 
---4-(x8)-7-(x8)--2-(x8)-7-(x4)-6-(x4)--| 
---4------7-------2------7------6-------| 
---2------5-------0------5------4-------| 
Palm Muted

Guitar3 
----------------------------------------| x2 
----------------------------------------| 
------------------------1-2-4-2-1-------| 
---4-6-7-6--4-6-7-6--2?4---------2------| 
----------------------------------------| 
----------------------------------------| 
Palm Muted 
 
Verse 
Guitar1 
--------------------------------------------------------------------| 
--------------------------------------------------------------------| 
------------------9------------------------------------------7------| 
---4-(x8)-7-(x8)--9-(x16)-4-(x8)-7-(x8)-9-(x4)-7-(x4)-9-(x4)-7-(x4)-| 
---4------7-------7-------4------7------9------7------9------5------| 
---2------5---------------2------5------7------5------7-------------| 
Palm Muted ,,,,,,,,,,,,,,,,,,,,,,,,,,,,,,,,,,,,,,,,,,,,,,,,,,,,,,,,,,,,,,,,, 
 
--------------------------------------------------------------------| 
--------------------------------------------------------------------| 
-----------------9--------------------------------------------------| 
---4-(x8)-7-(x8)-9-(x16)-4-(x8)-7-(x8)-9-(x4)-7-(x4)-9-(x4)-11-(x4)-| 
---4------7------7-------4------7------9------7------9------11------| 
---2------5--------------2------5------7------5------7------9-------| 
Palm Muted,,,,,,,,,,,,,,,,,,,,,,,,,,,,,, 
 
Guitar2  
---10------10------12-------| 
---11-(x2)-11-(x2)-12-(x8)--| 
---12------12------12-------| 
----------------------------| 
----------------------------| 
----------------------------| 
Palm Muted 
 
Riff2  
Guitar1 
---------------------------------| 
---------------------------------| 
---------------------------------| 
-------------------------------6-| 
---7-7-5/7-7-5/7/9-7/5--7-7-5/7--| 
---------------------------------| 
Palm Muted
 
Chorus 
Guitar1 
----------------------------------------| x2 
----------------------------------------| 
----------7-----------------------------| 
---4-(x8)-7-(x8)--7-(x8)-2-(x8)---------| 
---4------5-------7------2--------------| 
---2--------------5------0--------------| 
 
----------------------------------------| x2 
----------------------------------------| 
---7------------------------------------| 
---7-(x8)-4-(x8)--7-(x8)-2-(x8)---------| 
---5------4-------7------2--------------| 
----------2-------5------0--------------| 
 
Riff1 x1 
Verse  
Riff2  
Chorus  
 
 
Guitar1 
--------------------------------------------------------------| 
--------------------------------------------------------------| 
-11------7-------------9------11------7-----------------------| 
-11-(x8)-7-(x8)-7-(x8)-9-(x8)-11-(x8)-7-(x8)-7-(x8)-7-(x8)--4-| 
--9------5------7------7-------9------5------7------7-------4-| 
----------------5----------------------------5------4-------2-| 
 
 
Guitar1 
--9-------7------5------4------|x2 
-10-(x11)-7-(x5)-6-(x3)-5-(x3)-| 
-11-------7------6------6------| 
-------------------------------| 
-------------------------------| 
-------------------------------| 
 

-5------4--5------4--9------7------| x4 
-6-(x5)-6--6-(x5)-6--9-(x8)-9-(x8)-| 
-6------6--6------6--9------9------| 
-----------------------------------| 
-----------------------------------| 
-----------------------------------| 
 
Chorus  
 
Riff3  
 
Guitar1 
------------------------|x3-------| 
------------------------|---------| 
----------7-------------|---------| 
---4-(x8)-7-(x4)--2-(x4)|-2-(x16)-| 
---4------5-------2-----|-2-------| 
---2--------------0-----|-0-------| 
Palm Muted
 
Guitar2 
---------------------------------------------------------------------| 
---------------------------------------------------------------------| 
-----------------------------3-1-0-----------------------0-3-1-0-2-2-| 
---4-6-7-6--4-6-7-6--4-6-7-4------2--4-6-7-6--4-6-7-4?2-4-2----------| 
---------------------------------------------------------------------| 
---------------------------------------------------------------------|





Comentarios del colaborador: Fuente: E-Chords

Calificar esta versión:
Aviso: Este fichero es trabajo propio de su transcriptor y representa su interpretación personal de la canción. El material contenido en esta página es para exclusivo uso privado, por lo que se prohibe su reproducción o retransmisión, así como su uso para fines comerciales.