No Apologies, Sum 41 (tablatura)

Autor: metalex666 | 27065 visualizaciones

E|---------------------------------------------|
B|---------------------------------------------|
G|--7-777777777777--77--7777777777777----------|
D|--7-777777777777--77--7777777777777----------|
A|--5-555555555555--55--5555555555555----------|
E|---------------------------------------------|
      
E|---------------------------------------------|
B|---------------------------------------------|
G|--777----------------------------------------|
D|--777-----------------777--55555555----------| X2
A|--555-777--55555555---777--55555555----------|
E|------555--33333333---555--33333333----------|

E|---------------------------------------------|
B|---------------------------------------------|
G|--77777777-----------------------------------|
D|--77777777--77777777--99999999--55555555-----|
A|--55555555--77777777--99999999--55555555-----|
E|------------55555555--77777777--33333333-----|

E|----------------------------------------------|
B|----------------------------------------------|
G|--77777777------------------------------------|
D|--77777777--77777777--99999999--5555-7777-----|
A|--55555555--77777777--99999999--5555-7777-----|
E|------------55555555--77777777--3333-5555-----|

E|---------------------------------------------|
B|---------------------------------------------|
G|----------------------77777777---------------|
D|--99999999--55555555--77777777--77777777-----|
A|--99999999--55555555--55555555--77777777-----|
E|--77777777--33333333------------55555555-----|

E|-----------------------------------------------|
B|-----------------------------------------------|
G|----------------------77777777-----------------|
D|--99999999--55555555--77777777--7-7777777------|
A|--99999999--55555555--55555555--7-7777777------|
E|--77777777--33333333------------5-5555555------|
                                    
E|---------------------------------------------|
B|---------------------------------------------|
G|--77777777-----------------------------------|
D|--77777777--77777777--99999999--55555555-----|
A|--55555555--77777777--99999999--55555555-----|
E|------------55555555--77777777--33333333-----|

E|---------------------------------------------|
B|---------------------------------------------|
G|--77777777-----------------------------------|
D|--77777777--77777777--99999999--5555-7777----|
A|--55555555--77777777--99999999--5555-7777----|
E|------------55555555--77777777--3333-5555----|

E|---------------------------------------------|
B|---------------------------------------------|
G|--777----------------------------------------|
D|--777------55555555---777--55555555----------| X2
A|--555-777--55555555---777--55555555----------|
E|------555--33333333---555--33333333----------|

E|----------------------------------------------|
B|----------------------------------------------|
G|--77777777--77777777--------------------------|
D|--77777777--77777777--99999999--5555-7777-----|
A|--55555555--77777777--99999999--5555-7777-----|
E|------------55555555--77777777--3333-5555-----|

E|----------------------------------------------|
B|----------------------------------------------|
G|--77777777--77777777--------------------------|
D|--77777777--77777777--99999999--5555-7777-----|
A|--55555555--77777777--99999999--5555-7777-----|
E|------------55555555--77777777--3333-5555-----|
 aqui viene el solo
E|---------------------------------------------|
B|----------------------------------8--7-------|
G|----------------------------7--8-------9-7---| X2
D|-------4h5p4--------------77-77-77-77--------|
A|--5-55---------------------------------------|
E|-------------5-5-00-44-55--------------------|

E|---------------------------------------------|
B|---------------------------------------------|
G|-7~------------------------------------------|
D|---------------------------------------------|
A|---------------------------------------------|
E|---------------------------------------------|

E|---------------------------------------------|
B|---------------------------------------------|
G|---------------------------------------------|
D|-7~------------------------------------------|
A|-7~------------------------------------------|
E|-5~------------------------------------------|

E|---------------------------------------------|
B|---------------------------------------------|
G|--7-77-77-7-7--------------------------------|
D|--x-xx-xx-x-x--------------------------------|
A|--5-55-55-5-5--------------------------------|
E|---------------------------------------------|

E|------------%%%------------------------------|
B|------------%%%------------------------------|
G|-7-77-7-77--%%%------------------------------| X3
D|-7-77-7-77--%%%----5-55-5-7-77-7-------------|
A|-5-55-5-55--%%%----5-55-5-7-77-7-------------|
E|------------%%%----3-33-3-5-55-5-------------|

E|---------------------------------------------|
B|---------------------------------------------|
G|--7-777777777--------------------------------|
D|--7-777777777-5555555555-7777777777----------|
A|--5-555555555-5555555555-7777777777----------|
E|--------------3333333333-5555555555----------|

E|---------------------------------------------|
B|---------------------------------------------|
G|--7-777777777777--77--7777777777777----------|
D|--7-777777777777--77--7777777777777----------|
A|--5-555555555555--55--5555555555555----------|
E|---------------------------------------------|
fin:
E|---------------------------------------------|
B|---------------------------------------------|
G|--7-777777777777--77--7777777777777-7--------|
D|--7-777777777777--77--7777777777777-7--------|
A|--5-555555555555--55--5555555555555-5--------|
E|---------------------------------------------|

Comentarios del colaborador: bueno espero que les guste me esforce mucho la verdad tarde 3:24 horas bueno disfrutenla.........

Calificar esta versión:
Aviso: Este fichero es trabajo propio de su transcriptor y representa su interpretación personal de la canción. El material contenido en esta página es para exclusivo uso privado, por lo que se prohibe su reproducción o retransmisión, así como su uso para fines comerciales.