Rio Parana, Suarez (tablatura)

Autor: yaba | 17852 visualizaciones

Intro:

B11           D#m2        G#m
|---7-----7------6-----6|----4-6-4-4------4-6-4-4|
|---7-----7------7-----7|----4-4-4-4------4-4-4-4|
|---8-----8---8--8--8--8|----4-4-4-4------4-4-4-4|
|9--9--9--9---8--8--8--8|-6--6-6-6-6---6--6-6-6-6|
|9-----9--9---6-----6--6|-6------6-6---6------6-6|
|7-----7--7------------6|-4------4-4---4------4-4|


B11           D#m2        G#m
|---9-----7------6-----6|----4-6-4-4------4-6-4-4|
|---7-----7------7-----7|----4-4-4-4------4-4-4-4|
|---8-----8---8--8--8--8|----4-4-4-4------4-4-4-4|
|9--9--9--9---8--8--8--8|-6--6-6-6-6---6--6-6-6-6|
|9-----9--9---6-----6--6|-6------6-6---6------6-6|
|7-----7--7------------6|-4------4-4---4------4-4|


B11      D#m11      G#m
 Adios,   adios.

B11       D#m11      G#m
 Me voy,   me voy. 

B                   D#m         
Sigo remontando rio arriba en un barco que en la 

G#m                        G       F#     B    G  F#  B    G  F#
proa lleva el nombre de tu nombre rio paraná.
 
B        D#m            Bbm    E
 Cambió,   cambió,  cambió, 

B             D#m       Bbm    E
 cambió,  cambió,   cambió, 

E        B    Em       B   Em       B     Em
 rio paraná,   rio paraná,  rio paraná. 


B11      D#m11      G#m
 Mejor,    mejor.

B11      D#m11      G#m
 Jamás,    jamás.

B                   D#m         
Sigo remontando rio arriba en un barco que en la 

G#m                        G       F#     B    G  F#  B    G  F#
proa lleva el nombre de tu nombre rio paraná.
 
B           D#m       Bbm     E
Siguió, siguió,  siguió, 

B           D#m       Bbm     E
siguió, siguió,  siguió.


B D# G#m (x2)


Solo

  B         D#      G#m
|-------------------------------------------|
|---4---4-----4---4----4---4----------------|
|-4---6---6\0---6--------6------------------|
|-------------------6--------6-6^7^6-6\5\4--|
|-------------------------------------------|
|-------------------------------------------|

  B         D#      G#m
|-------------------------------------------|
|-------4-----4---4----4--------------------|
|-4-4-6---6\0---6--------6-4-6^7^6-4--------|
|-------------------6----------------6\5\4--|
|-------------------------------------------|
|-------------------------------------------|



B                   D#m
Sigo remontando rio arriba en un barco que en

G#m                           G       F#      B  G  F#  B  G  F#
la proa lleva el nombre de tu nombre rio paraná. 

B        D#m            Bbm    E
 Cambió,   cambió,  cambió, 

B             D#m       Bbm    E
 cambió,  cambió,   cambió, 

E        B    Em       B   Em       B   Em        B  Em  B
 rio paraná,   rio paraná,  rio paraná,  rio paraná.


Final

  Em              B
|-------------------------|
|-------------------------|
|---4-6-6^7^6-4-----------|
|-5-------------5\4-------|
|-------------------------|
|-------------------------|




  B11       D#m11       D#m         B          E          G

|--7--|    |--6--|    |--2--|    |--2--|    |--0--|    |--3--|
|--7--|    |--7--|    |--4--|    |--4--|    |--0--|    |--3--|
|--8--|    |--8--|    |--3--|    |--4--|    |--1--|    |--4--|
|--9--|    |--8--|    |--4--|    |--4--|    |--2--|    |--5--|
|--9--|    |--6--|    |--x--|    |--2--|    |--2--|    |--5--|
|--7--|    |--6--|    |--x--|    |--x--|    |--0--|    |--3--|



  F#         Bbm        D#         G#m        Em

|--2--|    |--2--|    |--3--|    |--4--|    |--0--|
|--2--|    |--3--|    |--4--|    |--4--|    |--0--|
|--3--|    |--4--|    |--3--|    |--4--|    |--0--|
|--4--|    |--4--|    |--5--|    |--6--|    |--2--|
|--4--|    |--2--|    |--x--|    |--6--|    |--2--|
|--2--|    |--x--|    |--x--|    |--4--|    |--0--|


Recomiendo este disco de Suarez...

Por Walter
Calificar esta versión:
Aviso: Este fichero es trabajo propio de su transcriptor y representa su interpretación personal de la canción. El material contenido en esta página es para exclusivo uso privado, por lo que se prohibe su reproducción o retransmisión, así como su uso para fines comerciales.