Salmo 91, Su Presencia (tablatura)

Autor: Anónimo | 15706 visualizaciones

ESTE TEMA ES BUENISIMO, AHI LO TIENEN DISFRUTENLO
EL NOMBRE CORRECTO DEL TEMA ES SALMO 145

INTRO:
E---------------------------------------------------------------
B------------5-6-8S10-8-6-5-5H6------6-8-8S10--10S13-15-15------
G--------5-7--------------------7-5S7---------------------------
D--3S5-7--------------------------------------------------------
A---------------------------------------------------------------
E---------------------------------------------------------------


E-15^17-17-17-17-15P13-----------------------------------------
B----------------------15----6-8-8S10-8-6-5-6--5H6-5H6-5H6-5H6-
G-------------------------5S7-----------------------------------
D---------------------------------------------------------------
A---------------------------------------------------------------
E---------------------------------------------------------------

ESTROFA
     Bb9          C9               Dm--F-----Dm--F
Cada generacion celebrara tus obras
E----1----1------3----3-----------5-5-S-8---5-5-S-8
B----1----1------3----3-----------6-6-S-8---6-6-S-8
G----3----3------5----5-----------7-7-S-10--7-7-S-10
D----3----3------5----5-----------7-7-S-10--7-7-S-10
A----1----1------3----3-----------5-5-S-8---5-5-S-8
E----1----1------3----3-----------5-5-S-8---5-5-S-8
   Bb9           C9                            Dm--F-----Dm--F
se hablara del esplendor de tu gloria y majestad
   Bb9           C9                         Dm--F-----Dm--F
se proclamara la memoria de tu inmensa bondad
   Bb9           C9       Bb9          C9          A
se cantara con jubilo se cantara con jubilo tu victoria

CORO
               Bb      C           Dm
Te exaltare mi Dios y rey por siempre
           Bb     C       Dm
todos los dias te bendecire
                Bb    C            Dm     Bb  A    Dm
te exaltare mi Dios y rey por siempre grande eres tu   X2
Calificar esta versión:
Aviso: Este fichero es trabajo propio de su transcriptor y representa su interpretación personal de la canción. El material contenido en esta página es para exclusivo uso privado, por lo que se prohibe su reproducción o retransmisión, así como su uso para fines comerciales.