Vivir Asi, Strike 3 (acordes)

Autor: paulmetalcore | 39303 visualizaciones



INTRO:(D5-F5-Bb5)
CORO:
            D5                F5
Y esque no puedo vivir como vivo
  Bb                 G5
solamente tu entenderas;
             D5                F5
y esque no puedo seguir como vivo
                    Bb-A-A-Bb-A-A
solamente tu entenderas.

VERSO 1:
          D5                  F5
 Y la verdad el tiempo no cuenta
          Bb5                 A5
y cada dia contigo quiero estar
         D5              F5
ya mis errores no me dejan
          Bb              A5
seguir viviendo mi necesidad...
             Dm
pero con tu amor
               F7M
que me da la  paz
            Bb
puedo entender que existo de verdad
          Dm                F7M
y yo solo se que tu estas ahi
            Bb
puedo resistir tus manos sobre mi

CORO:
 y esque no puedo vivir como vivo
solamente tu entenderas;
y esque no puedo vivir como vivo
solamente tu entenderas.
una vez mas¡¡¡¡

fig1 (x2)
e---X-------------------------------------
B---X-------------------------------------
G---X-------------------------------------
D---0-0-X--0-0-X--0-0-x--0-0-x--0-0-3h----
A---0-0-X--0-0-X--0-0-x--0-0-x--0-0-3h----
A---0-0-X--0-0-X--0-0-x--0-0-x--0-0-3h----

fig2 (x2)
e----------------------------------------
B---x-x----x-x----x-x----x-x----x-x------
G---3-3----3-3----3-3----3-3----3-3------
D---0-0-X--0-0-X--0-0-x--0-0-x--0-0-3h---
A---0-0-X--0-0-X--0-0-x--0-0-x--0-0-3h---
D---0-0-X--0-0-X--0-0-x--0-0-x--0-0-3h---
     D5

VERSO 2:
  solo seee que sin tu amor no puedo
caminar y hace-eer....
ahora comprendo y ahora entiendo
que cada dia es un dia menos
no soportaria mas no verte
y en mis sentidos no sentirte

pero con tu amor que me da la paz
puedo entender que existo de verdad
y yo solo se
que tu estas ahi
necesito ver que tu esta aqui

CORO:
y esque no puedo vivir como vivo
solamente tu entenderas;
y esque no puedo seguir como vivo
solamente tu entenderas.

solo (la neta no lo he sacado bien) :-(

CORO:
 Y esque no puedo vivir como vivo
solamente tu entenderas
y esque no puedo seguir como vivo
solamente tu entenderas
una vez mas¡¡¡¡¡¡¡

final...(fig1 y fig2)

ACORDES:
e------------------------5----0----1---
B------------------------6----1----3---
G------------------------7----2----3---
D----0---3---8---5---7---7----3----3---
A----0---3---8---5---7---5----3----1---
E----0---3---8---5---7---0----x----x---
     D5  F5  Bb5 G5  A5  Dm  F7M   Bb





Calificar esta versión:
Aviso: Este fichero es trabajo propio de su transcriptor y representa su interpretación personal de la canción. El material contenido en esta página es para exclusivo uso privado, por lo que se prohibe su reproducción o retransmisión, así como su uso para fines comerciales.