Nazareno, Strike 3 (acordes)

Autor: paulmetalcore | 33831 visualizaciones

asosfggsos


 intro:[ping pong delay ~~~~~~]
[x2]
 d|--------------------------------
 a|--------------------------------
 f|--------------------------------
 c|------7~~~7~~~-----10~~~10~~~---
 G|--------------------------------
 C|---5~~~5~~~------8~~~8~~~-------
       F2             G#2
intro2: distor
 d|--------------------------------
 a|--------------------------------
 f|--------------------------------
 c|-5-5--5-5-5--8-8--8-8-8---------
 G|-5-5--5-5-5--8-8--8-8-8---------
 C|-5-5--5-5-5--8-8--8-8-8---------
    F            G#


G#2               F
todos piensan en ti
G#2                  F
y te crees la gran cosa
G#2              F
te quieres igualar
G#2              F
te quieres comparar

G#               F
al Nazareno..Nazareno
G#               F
al nazareno nazareno
G#               F
al nazareno nazareno
F    G   G#    A#
yeee iee ieee iea
F    G   G#    A#
yeee iee ieee iea

[repite]
algunos piensan que su nombre
se escusha estupido
pero tiene el podee-eer
para destruir
el mismo infierno
nazareno o nazareno
nazareno o nazareno
NAZARENO
yeee iee ieee iea
yeee iee ieee iea

solo[x2]: distor+wah wah o un filtro envelope
[tambien pueden tocarla como octava cada nota]
 e|------------------------------------------------
 b|------------------------------------------------
 g|------------------------------------------------
 d|---------------------------15-15-17-17-18-18-19-
 a|---12-12-15-15-17-17-17-17----------------------
 D|------------------------------------------------

 e|------------------------------------------------
 b|------------------------------------------------
 g|-15-14-15-14-15-14-15-14------------------------
 d|------------------------------------------------
 a|------------------------------------------------
 D|------------------------------------------------


nazareno o nazareno
nazareno o nazareno
NAZARENO
Ye ee ee e a 
ye ee ee e a 
 





Calificar esta versión:
Aviso: Este fichero es trabajo propio de su transcriptor y representa su interpretación personal de la canción. El material contenido en esta página es para exclusivo uso privado, por lo que se prohibe su reproducción o retransmisión, así como su uso para fines comerciales.