Speed Of Light, Stratovarius (tablatura)

Autor: manuel266 | 22332 visualizaciones

Stratovarius  
Speed of light  
 
Tune Down 1/2 Step 
   
Intro: 
e:---------------------------------------------------------------------------| 
B:---------------------------------------------------------------------------| 
G:---------------------------------------------------------------------------| 
D:(---)-9-(---)--9h10p9--7--9-(---)-9-(-----7-------------------)-9-(---)-9h1| 
A:-7-7-----7-7-----------------7-7-----7-7-----10--9--10--7--7-7-----7-7-----| 
E:---------------------------------------------------------------------------| 
 
                                                                   Riff 1 
e:---------------------------------------------------------------------------| 
B:------------------------------------------------------------NX-|-----------| 
G:---------------------------------------------------------------|-----------| 
D:0p9--7--9--12--10--9--7--10--9--7------9--7--------------------|-----------| 
A:-----------------------------------10---------10--9--10--9--7--|-----------| 
E:------------------------------------------------------------------7--5--3--| 
 
     Verse 1                         Bridge 
e:---------------------------------------------------------------------------| 
B:--|----------8-------------------|-----------------------------------------| 
G:--|----------7-------------------|-----------------------------------------| 
D:--|-----5----5----7----9----5----|--6-(-----)-6--6-(-----)-6--7-(-----)-7--| 
A:--|2----3---------5----7----3----|--4--4-4-4--4--4--4-4-4--4--5--5-5-5--5--| 
E:2--0-------------------0---------------------------------------------------| 
 
 
e:---------------------------------------------------------------------------| 
B:-----------------------------------------------------------------15--17--19| 
G:-----------------------------------------------------14--16--17------------| 
D:7-(-----)-8-(-----)-8--8-(-----)-9--9--7--5--7--7--------------------------| 
A:5--5-5-5--6--6-6-6--6--6--6-6-6--7--7--5--3--4--5--------------------------| 
E:---------------------------------------------------------------------------| 
 
 
                  Verse 2 
e:--15--17--19/20------------------------------------------------------------| 
B:---------------|----------------------------------------------------|-Repea| 
G:---------------|------------14b(16)rb14--12--11--12--14--12~--------|------| 
D:---------------|--9----5---------------------------------------5----|------| 
A:---------------|--7----3---------------------------------------3----|------| 
E:---------------------------------------------------------------------------| 
 
            Chorus 
e:---------------------------------------------------------------------------| 
B:t-Bridge-|-----------------------------------------------------------------| 
G:---------|-----------------------------------------------------------------| 
D:---------|-------9-------9b10p9--7--9-------9--------7-------------5-------| 
A:---------|--7-7-----7-7----------------7-7-----7--7-----10--9--10--3-------| 
E:---------------------------------------------------------------------------| 
 
 
e:---------------------------------------------------------------------------------| 
B:---------------------------------------------------------------------------------| 
G:---------------------------------------------------------------------------------| 
D:-----------------9-------9h10p9--7--9-------9-------7-------------5--------------| 
A:---3--2--6--7-7-----7-7----------------7-7-----7-7-----10--9--10--3-------3--2--6| 
E:-5---------------------------------------------------------------------5---------| 
 
e:--------------------------------15--17--19--17--15-------------------------| 
B:--------------------15--17--18----------------------18--17--15-------------| 
G:--------14--16--17----------------------------------------------17--16--14-| 
D:-----9---------------------------------------------------------------------| 
A:-----7---------------------------------------------------------------------| 
E:---------------------------------------------------------------------------| 
 
 
             1st Guitar Solo (doubled w/ Keyboards) 
e:---------------------------------------------------------------------------| 
B:----------|-------------10--12--10-------------13--12--10--13--12----------| 
G:-------9--|--9--11--12--------------12--11--9----------------------12--11--| 
D:--8----9--|----------------------------------------------------------------| 
A:--9----7--|----------------------------------------------------------------| 
E:--7------------------------------------------------------------------------| 
 
 
e:------------10--12--10--------------13--12--10--12--10---------------------| 
B:10--12--13--------------13--12--10----------------------13--12-------------| 
G:----------------------------------------------------------------9--11--12--| 
D:---------------------------------------------------------------------------| 
A:---------------------------------------------------------------------------| 
E:---------------------------------------------------------------------------| 
 
e:---------------------------------------------------------------------------| 
B:10--12--10-------------13--12--10--12--10----------------------11--13------| 
G:------------12--11--9----------------------12--11--10--12--13----------13--| 
D:---------------------------------------------------------------------------| 
A:---------------------------------------------------------------------------| 
E:---------------------------------------------------------------------------| 
 
e:------------12--13--15------------------------------------------------------| 
B:11--13--14-------------------------10--12--10-------------13--12--10--12--10| 
G:------------------------9--11--12--------------12--11--9--------------------| 
D:----------------------------------------------------------------------------| 
A:----------------------------------------------------------------------------| 
E:----------------------------------------------------------------------------| 
 
e:-----------------------10--12--10--------------13--12--10--12--10----------| 
B:-----------10--12--13--------------13--12--10----------------------13--12--| 
G:---12--11------------------------------------------------------------------| 
D:---------------------------------------------------------------------------| 
A:---------------------------------------------------------------------------| 
E:---------------------------------------------------------------------------| 
 
e:-----------------------------------------------------------------------------| 
B:-----------10--12--10-------------13--12--10--12--10----------------------11-| 
G:9--11--12--------------12--11--9----------------------12--11--10--12--13-----| 
D:-----------------------------------------------------------------------------| 
A:-----------------------------------------------------------------------------| 
E:-----------------------------------------------------------------------------| 
 
e:-----------------------12--13--15--------------------------------------14--| 
B:---13------11--13--14--------------------------13--15------13--15--16------| 
G:-------13--------------------------12--14--15----------15------------------| 
D:---------------------------------------------------------------------------| 
A:---------------------------------------------------------------------------| 
E:---------------------------------------------------------------------------| 
 
 
              2nd Guitar Solo  *=tremolo picking 
e:15--17/20-----9*------12*--11*--14*--12*--19--16~--17p16--16h17p16------16-| 
B:-----------|------9*------------------------------------------------19-----| 
G:-----------|---------------------------------------------------------------| 
D:-----------|---------------------------------------------------------------| 
A:-----------|---------------------------------------------------------------| 
E:---------------------------------------------------------------------------| 
 
 
e:---------------------------------------------------------------------------| 
B:-19--17--19--17--16--17~---------------------------------------------------| 
G:-------------------------(This-scale-sequences-were-taken-from-Live-in-Sao-| 
D:---------------------------------------------------------------------------| 
A:---------------------------------------------------------------------------| 
E:---------------------------------------------------------------------------| 
 
e:---------------------------------------------------------------------------| 
B:---------------------------------------------------------------------------| 
G:Paulo-version,-and-it`s-the-same-scale,-but-not-identic-as-studio-version)-| 
D:---------------------------------------------------------------------------| 
A:---------------------------------------------------------------------------| 
E:---------------------------------------------------------------------------| 
 
e:------------15--16--15-----------------------------------------------------| 
B:14--16--17--------------17--15--14--17--16--14-----------------------------| 
G:------------------------------------------------16--15--13--------------16-| 
D:------------------------------------------------------------17--14--13-----| 
A:---------------------------------------------------------------------------| 
E:---------------------------------------------------------------------------| 
 
e:---------------------------------------------------------------------------| 
B:-----------------------------------------------------------------14--16--17| 
G:-15--13----------------------------------------------13--15--16------------| 
D:---------17--14--13----------------------13--14--17------------------------| 
A:---------------------16--14--13--14--16------------------------------------| 
E:---------------------------------------------------------------------------| 
 
 
                      Riff before the third guitar solo 
e:--15--16--17-(?)-----------------------------------------------------------| 
B:------------------|--12-------12--10--12-------12-------12--10--12-------12| 
G:------------------|------9-9--------------9-9------9-9--------------9-9----| 
D:------------------|--------------------------------------------------------| 
A:------------------|--------------------------------------------------------| 
E:---------------------------------------------------------------------------| 
 
e:---------------------------------------------------------------------------| 
B:-------12--10--12-------12-------10~-------12-------12--10-------12-------1| 
G:--9-9--------------9-9------9-9-------11~------9-9----------9-9------9-9---| 
D:---------------------------------------------------------------------------| 
A:---------------------------------------------------------------------------| 
E:---------------------------------------------------------------------------| 
 
 
                                                      Third guitar solo (Now 
e:----------------------------------------------14~----19--17--15--14--15--17| 
B:2--10--12-------12-------12--10--12------12~-------|-----------------------| 
G:-----------9-9------9-9--------------9~------------|-----------------------| 
D:---------------------------------------------------|-----------------------| 
A:---------------------------------------------------|-----------------------| 
E:---------------------------------------------------------------------------| 
 
  you see it`s not so hard asit sounds.:-) 
e:--15--14--12--14--15--14--12--11--12--14--12--11--14--15--17--15--14--12--1| 
B:---------------------------------------------------------------------------| 
G:---------------------------------------------------------------------------| 
D:---------------------------------------------------------------------------| 
A:---------------------------------------------------------------------------| 
E:---------------------------------------------------------------------------| 
 
 
e:4--15--14--12--11--12--14--12--11--8--11--12--11--8--12--14--15--14--12--11| 
B:---------------------------------------------------------------------------| 
G:---------------------------------------------------------------------------| 
D:---------------------------------------------------------------------------| 
A:---------------------------------------------------------------------------| 
E:---------------------------------------------------------------------------| 
 
e:--12--14--12--11--8--11--12--11--8--7--8--10--8--7--11--12--14--12--11--8--| 
B:---------------------------------------------------------------------------| 
G:---------------------------------------------------------------------------| 
D:---------------------------------------------------------------------------| 
A:---------------------------------------------------------------------------| 
E:---------------------------------------------------------------------------| 
 
e:11--12--11--8--------------------------------------------------------------| 
B:---------------------------------------------------|-Repeat-Chorus-plus-|--| 
G:---------------------------------------------------|--------------------|--| 
D:---------------------------------------------------|--------------------|--| 
A:---------------6--3--2--1--6--3--2--1--6--3--2--1--|--------------------|--| 
E:---------------7--5--3--2--7--5--3--2--7--5--3--2--------------------------| 
 
 
e:---------------------------------------------------------------------------| 
B:---------------------------------------------------------------------------| 
G:-------------------------------------------------(doubled-w/-keyboards)----| 
D:---------------------------------------------5---------------------------14| 
A:0--3--2--6--0--3--2--6--0--3--2--0--3--2--6--3-----------------------------| 
E:---------------------------------------------------------------------------| 
 
 
e:----------------------------------15--17--19--17--15-------------------------| 
B:----------------------15--17--18----------------------18--17--15-------------| 
G:----------14--16--17----------------------------------------------17--16--14-| 
D:--16--17---------------------------------------------------------------------| 
A:-----------------------------------------------------------------------------| 
E:-----------------------------------------------------------------------------| 
 
e:----------------------------| 
B:-----------------------|-End| 
G:--------------------9--|----| 
D:---17--16--14----8--9--|----| 
A:-----------------9--7--|----| 
E:-----------------7----------| 

Calificar esta versión:
Aviso: Este fichero es trabajo propio de su transcriptor y representa su interpretación personal de la canción. El material contenido en esta página es para exclusivo uso privado, por lo que se prohibe su reproducción o retransmisión, así como su uso para fines comerciales.