Millenium, Stratovarius (tablatura)

Autor: manuel266 | 24692 visualizaciones

Main Theme 
Riff 1 (2x) 
 
e(----------------------------------------------------------------- 
B(----------------------------------------------------------------- 
G(----------------------------------9=----------------------------- 
D(-5-4-5---------------------5-4-5/-7=-4-5-4-5--------------------- 
A(---------------------------------------------3-3-3-3-3-3-3-3-3-3- 
E(-------0-0-0-0-0-0-0-0-0-0--------------------------------------- 
P.M.     . . . . . . . . . .                   . . . . . . . . . . 
 
                                                1st        2nd 
e(--------------------------------------------(---------(---------) 
B(--------------------------------------------(---------(--8=-7=--) 
G(--------9=-----------------------------2===-(--7=-8=--(--7=-6=--) 
D(-5-4-5/-7=-4-5-4-2---------------------2===-(--7=-9=--(--5=-4=--) 
A(-------------------0-0-0-0-0-0-0-0-0-0-0===-(--5=-6=--(---------) 
E(--------------------------------------------(---------(---------) 
P.M.                 . . . . . . . . . . 
 
 
Riff 2 (4x) 
                                               1st/2nd/3rd       4th 
e(-------------------------------------------(-----------------(---------) 
B(-------------------------------------------(-----------------(---------) 
G(-------------------------------------------(-----------------(-------4-) 
D(-------------------------------------------(-----------------(-------4-) 
A(---------7-----5-----3-----2-3-2-----------(-2-3-2-----------(-2-2-2-2-) 
E(-0-0-0-0---0-0---0-0---0-0-------5-3-5-3-2-(-------5-3-5-3-2-(---------) 
P.M. . . .   . .   . .   . .                                     . . . 
 
 
Verse 
Riff 3 
 
e(------------------------------------------------------------------- 
B(------------------------------------------------------------------- 
G(------------------------------------------------------------------- 
D(---2===-------------------------------7---------------------------- 
A(---2===---5---------------------------5--5-5-5--5-5-5--5-5-5--5-5/- 
E(---0===---3--3-3-3--3-3-3--3-3-3--3-3------------------------------ 
P.M.           . . .  . . .  . . .  . .    . . .  . . .  . . .  . . 
 
e(------------------------------------------------------------------------------- 
B(------------------------------------------------------------------------------- 
G(---4=----5=-4=-5===------------------------------------------------------------ 
D(---4=-2=-5=-4=-5===------------------------------------------------------------ 
A(---2=-2=-3=-2=-3===-x/--------------------------------------------------------- 
E(------0=------------x/-0--0-0-0--0-0-0--0-0-0--0-0-0--0-0-0--0-0-0--0-0-0--0-0- 
P.M.                     .  . . .  . . .  . . .  . . .  . . .  . . .  . . .  . . 
 
e(-------------------------------------------------------------) 
B(-------------------------------------------------------------) 
G(---5===---7-----------------------------9-7------------------) 
D(---5===---7---------------------------------10-9-7-----------) 
A(---3===---5-5-5-5-5-5-5-5-5-5-5-5-5-5-5------------10-9-7/-5-) 
E(-------------------------------------------------------------) 
P.M.          . . . . . . . . . . . . . . 
 
 
Chorus  - Riff 1 (2x) 
        - Riff 2 (4x) 
Verse 2 - Riff 3 
Chorus  - Riff 1 (2x) 
        - Riff 2 (4x) *play 1st ending 4th time* 
 
 
Guitar Solo/Rhythm Part 
Riff 4 (4x) 
 
e(-------------------------------------------------------------) 
B(-------------------------------------------------------------) 
G(-------------------------------------------------------------) 
D(-----------7-----5-----3-----2-3-2-----------2-3-2-----------) 
A(---0-0-0-0---0-0---0-0---0-0-------5-3-5-3-2-------5-3-5-3-2-) 
E(-------------------------------------------------------------) 
P.M. . . . .   . .   . .   . . 
 
 
Keyboard Solo/Rhythm Part 
Riff 5 (4x) 
 
e(-------------------------------------------------------------)------ 
B(-------------------------------------------------------------)------ 
G(-----------4-----2-------------------------------------------)-4===- 
D(-----------------------5-----4-5-4-2-0-2-0---4-5-4-2-0-2-0---)-4===- 
A(---2-2-2-2---2-2---2-2---2-2---------------4---------------4-)-2===- 
E(-------------------------------------------------------------)------ 
P.M. . . . .   . .   . .   . . 
 
 
Chorus  - Riff 1 (2x) 
        - Riff 2 (4x) *play 1st ending 4th time* 
 
 
Coda 
Riff 6 (originally played by keyboards) (4x) 
 
e(--------------------------------------------------------------)----------) 
B(--------------------------------------------------------------)----------) 
G(--------------------------------------------------------------)----------) 
D(--------------------------------------------------------------)-8=---2-2-) 
A(-----------10-----9-----7-----5-7-5-----------5-7-5-----------)-8=---2-2-) 
E(---0-0-0-0----0-0---0-0---0-0-------8-7-8-7-5-------8-7-8-7-5-)-6=---0-0-) 
P.M. . . . .    . .   . .   . . 
Calificar esta versión:
Aviso: Este fichero es trabajo propio de su transcriptor y representa su interpretación personal de la canción. El material contenido en esta página es para exclusivo uso privado, por lo que se prohibe su reproducción o retransmisión, así como su uso para fines comerciales.