Legions, Stratovarius (tablatura)

Autor: AGUS GP | 36334 visualizaciones

 Stratovarious - Legions

 Tab por: A.N.J.I C#R!$$TT (Agustin Ibarra)

 Afinación: Eb (Eb-Bb-Gb-Db-Ab-Eb)


 INTRO
                                                  

Eb|------------------------------------------------------------------------------------
Bb|------------------------------------------------------------------------------------
Gb|------------------------------------------------------------------------------------
Db|---------4----------------------------------------------------4---------------------
Ab|-------------------4---------5---------2--------4h5p4p2h4----------------4----------
Eb|-2-2-2-2---2-2-2-2---2-2-2-2---2-2-2-2----2-2-2-----------2-2----2-2-2-2---2-2-2-2--

Eb|----------------------------------------------------------------------------------
Bb|----------------------------------------------------------------------------------
Gb|----------------------------------------------------------------------------------
Db|-7--7-6-----4---------4--------------------------------------------------------4--
Ab|-5------7-5---------------------4---------5---------2--------4h5p4p2h4------------
Eb|--------------2-2-2-2---2-2-2-2---2-2-2-2---2-2-2-2----2-2-2-----------2-2-2-2----

Eb|-----------------------------------------|
Bb|-----------------------------------------|
Gb|-----------------------------7--7/9------|
Db|-----------------------------x--x-x------|Y se repite todo el Riff 3 Veces nada más que
Ab|---------4---------5---------5--5/7------|la tercera vez termina en D sonando libre...
Eb|-2-2-2-2---2-2-2-2---2-2-2-2-------------|

 
 Punteo (Aumentando la velocidad gradualmente):                           

                                                                           (Silencio...)

Eb|---------9h10h12----------10h12h14----------14h16h17----------14h16h17h19---|
Bb|-9h10h12---------10h12h14----------14h15h17----------15h17h19---------------|
Gb|----------------------------------------------------------------------------|
Db|----------------------------------------------------------------------------|
Ab|----------------------------------------------------------------------------|
Eb|----------------------------------------------------------------------------|


 Estrofa


Eb|---------------------------------------------------------------------------|
Bb|---------------------------------------------------------------------------|
Gb|---------------------------------------------------------------------------|
Db|--------------------------------------------------------2------------------|
Ab|-----------------------------------------------------5----5-4-2------------|
Eb|-2-2-2-2-2-2-4-4-5-5-0-0-0-0-0-0-0-5-0-2-2-2-2-2-2-2------------5-4-2------|


 Pre Estribillo:


A5                                       E5

 We run like the wind we play from the heart

Bm5                            G#5

 now we are here together we sing...


 Estribillo:

F#5

Faster than light 

A5

higher than the sky
 
B5                       D5 C#5

tonight we're together agaaaain

F#5
 
Never give up 

A5

and give in 

B5

stronger than steel 

           D  C#  A5  G#  F#5

we're the legions of the twilight...

 
 Pre - Solo:

              (Solo de Teclado)                (Rapidísimo)

Eb|-----------------------------21---21p19p17--------------15h19--21p19p17---------------15-
Bb|------------------------------------------21p19p17h19h21----------------21p19p17h19h21---
Gb|-----------------------------------------------------------------------------------------
Db|-----------------------------------------------------------------------------------------
Ab|-4-4-4-4-4-------------------------------------------------------------------------------
Eb|-2-2-2-2-2-------------------------------------------------------------------------------


Eb|-21--21p19p17-19p17p15-17p15p14----------------------------------------------------------
Bb|-------------------------------17p15p14------------------------------14h15h17p15p14------
Gb|---------------------------------------16p14p13--------------13h14h16--------------16p14-
Db|-----------------------------------------------14p12p10h12h14----------------------------
Ab|-----------------------------------------------------------------------------------------
Eb|-----------------------------------------------------------------------------------------


Eb|-------------------------------------------------14h16h17--------17h19h21~~~-------------
Bb|-------------------------14h15h17p15p14--14h15h17--------15h17h19------------------------
Gb|-13--------------13h14h16--------------16------------------------------------------------
Db|---16p14p12h14h16------------------------------------------------------------------------
Ab|-----------------------------------------------------------------------------------------
Eb|-----------------------------------------------------------------------------------------

 Bases de Solo de Teclado y 2do solo de Guitarra:

 F# B5 E5 A5 D5 D/Eb C#

 Solo:


Eb|-/9~-/9-5-------------------------------------------------------------------------------
Bb|----------9-7-5------------------------------------14h15h17p15p14--------14h15h17p15p14-
Gb|----------------7~-6h7p6---6-7-/9~---------13h14h16--------------13h14h16---------------
Db|-------------------------9---------12h14h16---------------------------------------------
Ab|----------------------------------------------------------------------------------------
Eb|----------------------------------------------------------------------------------------


Eb|----------------------------------------------------------------------------------------
Bb|-15h17p15p14----------------------------------------------------14h15h117p15p14--14h15h17
Gb|------------14h16h14-----------14h15p14--14h15h16p15p14p13h14h16---------------16-------
Db|--------------------16-12h14h16--------16-----------------------------------------------
Ab|----------------------------------------------------------------------------------------
Eb|----------------------------------------------------------------------------------------


Eb|-14h16h17p16p14-17~-14h16h17p16p14---14b-r-17h19h21p19p17p14h16h17p16p14----------------
Bb|----------------------------------17------------------------------------17p15p14--------
Gb|--------------------------------------------------------------------------------16p14p13
Db|----------------------------------------------------------------------------------------
Ab|----------------------------------------------------------------------------------------
Eb|----------------------------------------------------------------------------------------


Eb|--------------------------------------------------------------------------------------
Bb|--------------------------------------------------------------------------------------
Gb|-13h14h16/18h19h21p19p18---------------------------------17h19h21p19p17---------------
Db|------------------------21p19p18-----------------18h19h21--------------21p19p18h19h21-
Ab|--------------------------------21p19p17-17h19h21-------------------------------------
Eb|--------------------------------------------------------------------------------------


Eb|---------------------------17-21~~~~~~~~~-----|
Bb|---------17h19-21-19-17-21--------------------|
Gb|-17h19h21-------------------------------------|
Db|----------------------------------------------|
Ab|----------------------------------------------|
Eb|----------------------------------------------|


Listo!

Nota: El solo como es obio no está igual pero está bastante acercado, si resulta muy dificil
Conviene improvisar en F#m, Gracias

                                    kplu_punk@hotmail.com

Comentarios del colaborador: Comenten y Dejen puntuacion porfavor! Gracias

Calificar esta versión:
Aviso: Este fichero es trabajo propio de su transcriptor y representa su interpretación personal de la canción. El material contenido en esta página es para exclusivo uso privado, por lo que se prohibe su reproducción o retransmisión, así como su uso para fines comerciales.