Forever (solo), Stratovarius (tablatura)

Autor: dianthar | 46140 visualizaciones

E/----------------------------------------------------------
B/-----7----5-----------------------------------------------
G/---7----------7-6-4-------------------6---4-6-7-6-7-~6~---
D/----------------------7-5-4---5-4---7---------------------
A/----------------------------------7-----------------------
E/----------------------------------------------------------

E/----------------------------------------------------------
B/-----7----5-----------------------------------------------
G/---7----------7-6-4-------------------6---7-6-~4~---------
D/----------------------7-5-4---5-4---7---------------------
A/----------------------------------7-----------------------
E/----------------------------------------------------------

con unos arreglos echos por mi :)

Comentarios del colaborador: internet y yo !

Calificar esta versión:
Aviso: Este fichero es trabajo propio de su transcriptor y representa su interpretación personal de la canción. El material contenido en esta página es para exclusivo uso privado, por lo que se prohibe su reproducción o retransmisión, así como su uso para fines comerciales.