Change It, Stevie Ray Vaughan (tablatura)

Autor: leo_cs74 | 22374 visualizaciones

10~~~--8-----------------8--10~~~--8--|-------------8--10--10~~~--10~~~--8------|
----------10-----10--10---------------|-----10--10------------------------------|
--------------------------------------|-----------------------------------------|
--------------------------------------|-----------------------------------------|
--------------------------------------|-----------------------------------------|
--------------------------------------|-----------------------------------------|

----8-----------------------|---------------------------------------------------|
10-----10--8----------------|---------------------------------------------------|
--------------9\7--5--7~~~--|---------------------------------------------------|
----------------------------|---------------------------------------------------|
----------------------------|-----------7--7-----9--9-----7--7-----9--9---------|
----------------------------|-----------5--5-----5--5-----5--5-----5--5---------|

--------------------------------------------------------------------------------|
--------------------------------------------------------------------------------|
--------------------------------------------------------------------------------|
--------------------------------------------------------------------------------|
3--3-----5--5-----3--3-----5--5-------------------------------------------------|
1--1-----1--1-----1--1-----1--1-------------------------------------------------|


================================================================================
==                           TABLATURE EXPLANATION                            ==
================================================================================

----------                            ----------|
----5h8--- Hammeron                   ----(8)---| Ghost Note
----------                            ----------|
----5p8--- Pulloff                    ----------|

----------                            ----------|
----5/8--- Slide Up                   -----x----| Dead Note
----------                            ----------|
----5\8--- Slide Down                 ----------|

----------                            ||------|| Repeat Start & End
----5~~~-- Vibrato                    ||*----*||
----------                            ||*----*||
----------                            ||------||

Comentarios del colaborador: Fuente original: ultimate-guitar

Calificar esta versión:
Aviso: Este fichero es trabajo propio de su transcriptor y representa su interpretación personal de la canción. El material contenido en esta página es para exclusivo uso privado, por lo que se prohibe su reproducción o retransmisión, así como su uso para fines comerciales.