Ghost Riders In The Sky, Spiderbait (tablatura)

Autor: metal_dream | 35391 visualizaciones



6.0--------------3-3-3-0-3-0-------------------------
5.0-0-0-2-3-3-3-0----------0-0-0-2-3-3-3-------3-----
4.--------------------------------------0-2-2-2-2-2-2
3.---------------------------------------------------
2.---------------------------------------------------
1.---------------------------------------------------

6.-----------------------0-1-1-1-1-1-1-------------3-3-3-0-3
5.--------------3-3-3-3-0-----------0-3-3-3-3-3-3-0---------
4.-------2-2-2-2--------------------------------------------
3.3-3-3-3---------------------------------------------------
2.----------------------------------------------------------
1.----------------------------------------------------------

jajaja pzzz se oye mejor si la tocan desde la 5 y 4 cuerda y mueven todo una cuerda pa abajo jajaja aa y otra cosa se toca algo rapido okz ^^


sbrx ahy se las dejo 

BY:Rid_Galletho jkakjakajka





Calificar esta versión:
Aviso: Este fichero es trabajo propio de su transcriptor y representa su interpretación personal de la canción. El material contenido en esta página es para exclusivo uso privado, por lo que se prohibe su reproducción o retransmisión, así como su uso para fines comerciales.