You And Me, Soldiers Of Jah Army (tablatura)

Autor: Marianitto | 25950 visualizaciones



E|-----------------------------------|
B|-----------------------------------|
G|----16-14-12-12-11h12--------------|
D|-14-------------------12-----------|
A|-----------------------------------|
E|-----------------------------------|

E|-----------------------------------|
B|-----------------------------------|
G|----16-14-12-12-11h12--14----------|
D|-14--------------------------------|
A|-----------------------------------|
E|-----------------------------------|

E|-----------------------------------|
B|-----------------------------------|
G|----19-17-16-17-16--14--11h12--14--|
D|-14------------------------------- |
A|-----------------------------------|
E|-----------------------------------|

E|-----------------------------------|
B|-----------------------------------|
G|----16-14-12-12-11h12--------------|
D|-14-------------------12-----------|
A|-----------------------------------|
E|-----------------------------------|

 C            Em7             D
It's you and me, it's always been
C           Em7            D               Em
 And how I feel about you, there's no end, end
C            Em7            D
 But you make me chase you around
C             Em7           D              Em
 And then you need me when you fall down, down
C              Em7
 And when this dance is done,
D                             C
You and me are still the only one
               Em7
Well since our time begun
    D                                  C
And I'm still with you even when your gone
           Em7
When this dance is done,
D                              C
You and me are still the only one
                Em7
Well since our time begun
    D                                  C
And I'm still with you even when your gone
              Em7
So I start it, and you stop it
D                                      C
I want it knowing that you're walking away
           Em7
I start it, and you stop it
D                                      C
I want it knowing that you're walking away
           Em7
I start it, and you stop it
D                                      C
I want it knowing that you're walking away
           Em
I start it, and you stop it
D
Ya-e ya-e yah-a

It's you and me, back again
Don't introduce me to all your new friends
Why do you make me chase you around?
Why do your words make me not make a sound, sound?
And when this dance is done,
You and me are still the only one
Yes since time begun
I'm still with you even when your gone
When this dance is done,
You and me are still the only one
Yes since time begun
I'm still with you even when your gone

I start it, and you stop it
I want it knowing that you're walking away
I start it, and you stop it
I want it knowing that you're walking away
I start it, and you stop it
I want it knowing that you're walking away
I start it, and you stop it
Ya-e ya-e yah-a





Comentarios del colaborador: " http://cifraclub.terra.com/ "

Calificar esta versión:
Aviso: Este fichero es trabajo propio de su transcriptor y representa su interpretación personal de la canción. El material contenido en esta página es para exclusivo uso privado, por lo que se prohibe su reproducción o retransmisión, así como su uso para fines comerciales.