(sic) Live, Slipknot (tablatura)

Autor: the15738 | 41608 visualizaciones



Slipknot sic live by :the15738




E||---------------------------||     
B||---------------------------|| 
G||---------------------------||  x8
D||---------------------------|| 
A||-0-0-3-0-0-3-0-0-3-0-0-0-1-|| 
E||-0-0-3-0-0-3-0-0-3-0-0-0-1-|| 
 

E||-------------------------------------------------|| 
B||-------------------------------------------------|| 
G||-------------------------------------------------|| 
D||-------------------------------------------------||  x6  
A||-3h2h0-0--0--0-0-0--0--0-3h2h0-0--0--0-0-0--0--0-||
E||-3h2h0-0--0--0-0-0-?0--0-3h2h0-0--0--0-0-0--0--0-||
 

E||------------------------------|| 
B||------------------------------|| 
G||------------------------------|| 
D||------------------------------||  x2 
A||------------------------------|| 
E||-1-0-1-0-1-0-1-0--1/3-4-3-6-0-|| 

 
E||------------------------------|| 
B||------------------------------|| 
G||------------------------------|| 
D||------------------------------|| x4
A||-1-0-1-3-1-0-1-0--1/3-4-3-6-0-|| 
E||-1-0-1-3-1-0-1-0--1/3-4-3-6-0-|| 


E||------------------------------|| 
B||------------------------------|| 
G||------------------------------|| 
D||------------------------------|| x2
A||-1-0-1-0-1-0-1-0--1/3-4-3-6-0-|| 
E||-1-0-1-0-1-0-1-0--1/3-4-3-6-0-|| 


E||------------------------------|| 
B||------------------------------|| 
G||------------------------------|| 
D||------------------------------|| x2
A||-1-0-1-3-1-0-1-0--1/3-4-3-6-0-|| 
E||-1-0-1-3-1-0-1-0--1/3-4-3-6-0-|| 
 

E||-------------------------------------------------------------------|| 
B||-------------------------------------------------------------------|| 
G||-------------------------------------------------------------------|| 
D||-------------------------------------------------------------------|| x4
A||-9999999999-6666666666-8888888888-5555555555-9999999999-8888888888-|| 
E||-------------------------------------------------------------------|| 


E||------------------------------|| 
B||------------------------------|| 
G||------------------------------|| 
D||------------------------------|| x1
A||------------------------------|| 
E||-1-0-1-0-1-0-1-0--1/3-4-3-6-0-|| 


E||------------------------------|| 
B||------------------------------|| 
G||------------------------------|| 
D||------------------------------|| x4
A||-1-0-1-3-1-0-1-0--1/3-4-3-6-0-|| 
E||-1-0-1-3-1-0-1-0--1/3-4-3-6-0-|| 


E||------------------------------|| 
B||------------------------------|| 
G||------------------------------|| 
D||------------------------------|| x4
A||-1-0-1-0-1-0-1-0--1/3-4-3-6-0-|| 
E||-1-0-1-0-1-0-1-0--1/3-4-3-6-0-|| 


E||-------------------------------------------------------------------|| 
B||-------------------------------------------------------------------|| 
G||-------------------------------------------------------------------|| 
D||-------------------------------------------------------------------|| >>4 vezes
A||-9999999999-6666666666-8888888888-5555555555-9999999999-8888888888-|| 
E||-------------------------------------------------------------------|| 


E||---------------------------------------|| 
B||---------------------------------------|| 
G||-7------8----------10-/----------------|| 
D||-x------x----------x-/-----------------|| x4
A||-5------6----------8-/-----------------|| 
E||----0------7-----0---------------------|| 


Distortion (wha wha)
 
E||------------------------|| 
B||------------------------|| 
G||------------------------|| 
D||------------------------|| x4
A||-5v-5v-5v-5v----6-6-6-6-|| 
E||----------------6-6-6-6-|| 


E||----------------------------------------|| 
B||----------------------------------------|| 
G||----------------------------------------|| 
D||----------------------------------------|| x4
A||----------------------------------------|| 
E||-0--0--0--0--0--1h0---------------------|| 


E||---------------|| 
B||---------------|| 
G||---------------|| 
D||---------------|| x4
A||-0-3-2-8-0-3-2-|| 
E||-0-3-2-8-0-3-2-|| 


E||----------------------------------|| 
B||----------------------------------|| 
G||----------------------------------|| 
D||----------------------------------|| x4
A||----------------------------------|| 
E||-0-0-0-0-0-1----------------------|| 


E||-----------------------------------------------|| 
B||-----------------------------------------------|| 
G||-----------------------------------------------|| 
D||-----------------------------------------------|| x15
A||-5--2--1--2--1----5--2--1--2--1----5--2--1-----|| 
E||-5--2--1--2--1----5--2--1--2--1----5--2--1-----||
 

E||----------------------------------|| 
B||----------------------------------|| 
G||----------------------------------|| 
D||----------------------------------|| ........>>>
A||----------------------------------|| 
E||-0---3---2---1--------------------||





Comentarios del colaborador: para todos los lokos metaleros

Calificar esta versión:
Aviso: Este fichero es trabajo propio de su transcriptor y representa su interpretación personal de la canción. El material contenido en esta página es para exclusivo uso privado, por lo que se prohibe su reproducción o retransmisión, así como su uso para fines comerciales.