No Life, Slipknot (tablatura)

Autor: wheels02 | 40449 visualizaciones



Intro:

B |-------------------|
F#|-------------------|
B |-5/6v-0-5/6v-0-565-|

Intro Part 2:

B |----------|
F#|-3--0-1-0-|
B |-3--0-1-0-|

Verse:

B |-------------------|
F#|-111-2-1112-22-1-2-|
B |-111-2-1112-22-1-2-|

Chorus:

B |----------|
f#|-6--0-4-3-|
B |-6--0-4-3-|

Bridge:
("I cant remember, I dont understand"...)
             
B |----------|         |-----| 
F#|----------|X3 Then: |-----|
B |-00002/3p-|         |-0/6-|

3rd Verse:

B |------------|
F#|-3-121-0-23-|
B |-3-121-0-23-|

Pre - outro:

B |--------------------|
F#|--------------------|
B |-5/6v-0-5/6v-0-6-5v-|





Comentarios del colaborador: aqui les dejo no life de slipknot

Calificar esta versión:
Aviso: Este fichero es trabajo propio de su transcriptor y representa su interpretación personal de la canción. El material contenido en esta página es para exclusivo uso privado, por lo que se prohibe su reproducción o retransmisión, así como su uso para fines comerciales.