Me Inside, Slipknot (tablatura)

Autor: MA666OT | 39476 visualizaciones



|-------------------|
|-------------------|
|-------------------|
|-0-7-1-8--7---8----|
|---------5--76--8-8|
|0-71/8----7---8-8-|

chorus:
|--------------------------------------------------------|
|--------------------------------------------------------|
|14141414141414121212121212121414141414141415151515151515|
|-x-x-x-x-x-x-x-x-x-x-x-x-x-x-x-x-x-x-x-x-x-x-x-x-x-x-x-x|
|12121212121212101010101010101212121212121213131313131313|(x2)
|--------------------------------------------------------|

preverse:
|-----------------|
|-----------------|
|-----------------|
|-----------------|
|--------5--------|(x4)
|00-000/6--000-000|

verse:
|-----------|
|-----------|
|-----------|
|-----------|
|-------/141|(x8)
|000-000/141|

interlude:
|-----------|
|-----------|
|-----------|
|-7---------|
|8---5b-0-56|(x4)
|--00-------|

outro:
|----------|
|----------|
|----------|
|----------|
|----------|(x4)
|00-000/141|





Calificar esta versión:
Aviso: Este fichero es trabajo propio de su transcriptor y representa su interpretación personal de la canción. El material contenido en esta página es para exclusivo uso privado, por lo que se prohibe su reproducción o retransmisión, así como su uso para fines comerciales.