Eeyore, Slipknot (acordes)

Autor: tito10 | 28031 visualizaciones

b


E-----------------------------------------------------------------
b-0---------------------------------------------------------------
g-0---------------------------------------------------------------
d-0---------------------------------------------------------------
a-0---------------------------------------------------------------
d-----------------0------------------x~~~~~~----------------------

Fig 1.
e-----------------------------------------------------------------
b-----------------------------------------------------------------
g-4-4-4-4-4-4-4-4-5----4-4-4-4-4-4-4-4-5--------------------------
d-0-0-0-0-0-0-0-0-3----0-0-0-0-0-0-0-0-3--------------------------
a-----------------------------------------------------------------
d-----------------------------------------------------------------

w/ Fig 1
Riff A 
pm
e-----------------------------------------------------------------
b-----------------------------------------------------------------
g-----------------------------------------------------------------
d-----------------------------------------------------------------
a-----------------------------------------------------------------
d-0-0-0-0-1-1-1-1-0----0-0-0-0-1-1-1-1-0--------------------------

Verse Fig 2.    ...meet the man that made me....

e-----------------------------------------------------------------
b-----------------------------------------------------------------
g-----------------------------------------------------------------
d-----------------------------------------------------------------
a-7-7-7-7-7-7-7-7-3-3-3-3-2-2-2-2-7-7-7-7-7-7-7-7-3-3-3-3-2-2-2-2-
d-7-7-7-7-7-7-7-7-3-3-3-3-2-2-2-2-7-7-7-7-7-7-7-7-3-3-3-3-2-2-2-2-

Riff B
trem pick
e-----------------------------------------------------------------
b-----------------------------------------------------------------
g-----------------------------------------------------------------
d-----------------------------------------------------------------
a-----------------------------------------------------------------
d-7-7-7-7-7-7-7-7-3-3-3-3-2-2-2-2-7-7-7-7-7-7-7-7-3-3-3-3-2-2-2-2-

gtr 2.
trem pick
e-----------------------------------------------------------------
b-----------------------------------------------------------------
g-----------------------------------------------------------------
d-----------------------------------------------------------------
a-7-7-7-7-7-7-7-7-3-3-3-3-2-2-2-2-7-7-7-7-7-7-7-7-3-3-3-3-2-2-2-2-
d-----------------------------------------------------------------

....Burn !.....

e-----------------------------------------------------------------
b-----------------------------------------------------------------
g-----------------------------------------------------------------
d---------------------------------------------------------------4-
a-0--------------3-----3-----3h5/6--------------------5----3------
d-0--0-0-0-0-0-0-3p0-0-3p0-0-3h5/6-0-0-0-0-0-0-0--3---------------

Half time feel

e-----------------------------------------------------------------
b-----------------------------------------------------------------
g---------------------------------------------------/x-6----------
d-------------------------------------------/x-7----/x-4----------
a-3p0------------3p0---3p0---3h5/6-0--------/x-5------------------
d-3p0------------3p0---3p0---3h5/6-0------------------------------

that?s all





Calificar esta versión:
Aviso: Este fichero es trabajo propio de su transcriptor y representa su interpretación personal de la canción. El material contenido en esta página es para exclusivo uso privado, por lo que se prohibe su reproducción o retransmisión, así como su uso para fines comerciales.