30 Years To Life, Slash (tablatura)

Autor: [anoni]Yago[anoni] | 31809 visualizaciones



e|-----------------------------------------|----------------------------|
B|-------4---------------------------------|----4-----------------------|
G|-------3----3-3---------5---------5------|----3----3-3---------5------|
D|--5----2----3-3----3----5----5----5----5-|----2----3-3----3----5----5-|
A|--5---------1-1----3----3----5----3----5-|---------1-1----3----3----5-|
E|--3----------------1---------3---------3-|----------------1---------3-|

e|----------------------8-11-10-8-------8-------8--------------------
B|-8-8----8-8----8-8-11-----------11-11---11-11---11----8-10-11-10-8-
G|-----10-----10-------------------------------------10--------------
D|-------------------------------------------------------------------
A|-------------------------------------------------------------------
E|-------------------------------------------------------------------

e|--------------------------------------------------------------------|
B|-------8-------8-------8-10-11/13-8-8-8----8-8----8-8---------------|
G|-10-10---10-10---10-10------------------10-----10-----10-7----------|
D|-----------------------------------------------------------10-8-----|
A|----------------------------------------------------------------10--|
E|--------------------------------------------------------------------|

e|----------------------8-11-10-8-------8-------8--------------------
B|-8-8----8-8----8-8-11-----------11-11---11-11---11----8-10-11-10-8-
G|-----10-----10-------------------------------------10--------------
D|-------------------------------------------------------------------
A|-------------------------------------------------------------------
E|-------------------------------------------------------------------

e|------------------------------------------------------|
B|-------8-------8-------8-10-11/13-8-8-8---------------|
G|-10-10---10-10---10-10------------------10-7----------|
D|---------------------------------------------10-8-----|
A|--------------------------------------------------10--|
E|------------------------------------------------------|





Calificar esta versión:
Aviso: Este fichero es trabajo propio de su transcriptor y representa su interpretación personal de la canción. El material contenido en esta página es para exclusivo uso privado, por lo que se prohibe su reproducción o retransmisión, así como su uso para fines comerciales.