Lágrimas Y Cenizas, Skay Beilinson (acordes)

Autor: Anónimo | 23386 visualizaciones

miresol
Lágrimas y cenizas
Skay Beilinson
A través del mar de los sargazos [2002]

Intro:
[Mi-Re-Sol]
1|-8-6-------------------------------|-8-6---------------------------|
2|-----9vr-7-5-7vr--5-7-9-10-9-9vr-7-|-----9vr-7-5-7vr--5-7-9-10-9-7-|
3|-----------------------------------|-------------------------------|
4|-----------------------------------|-------------------------------|
5|-----------------------------------|-------------------------------|
6|-----------------------------------|-------------------------------|

   Mi
Se fue la tormenta
   Re
ya pasó el vendaval
   Mi
lágrimas y cenizas
   Re
el viento las llevará
   Sol
sólo quedan las ruinas
   Re
de un sueño que se fue con vos
   Sol
los portales dorados
   Re
y la desolación.

-Igual que Intro

    Mi
Cuando miro el abismo
    Re
y cuando veo un poco más allá
    Mi
me pregunto quién hizo
    Re
tu sonrisa y el mar
   Sol
el polvo del camino
   Re
sacudido en un rincón
   Sol
después otro destino
   Re
otro puerto otro amor.

-Igual que Intro

    Mi
Cuando veo la mañana
     Re
y cuando el cielo es más azul
     Mi
cargo a cuestas mi mochila
    Re
otro sueño otra cruz
   Sol
persiguiendo mi estrella
    Re
una luz en la oscuridad
   Sol
voy a andar los caminos
   Re
y volverte a encontrar.

-Final
                                                                   Re  Mi
1|-8-6-------------------------------|-8-6-------------------------5---7--|
2|-----9vr-7-5-7vr--5-7-9-10-9-9vr-7-|-----9vr-7-5-7vr--5-7-9-10-9-7---9--|
3|-----------------------------------|-----------------------------7---9--|
4|-----------------------------------|-----------------------------7---9--|
5|-----------------------------------|-----------------------------5---7--|
6|-----------------------------------|-----------------------------5---7--|

Bueno, este es el tema completo, no es difícil , ojalá este bien sacado y les sirva.
Aguanten Los Redondos, Skay, Arbol, Bulldog, La Renga, Los Piojos, El Soldado, Las Pelotas, etc
LO MEJOR DE LOS REDONDOS ES QUE NO ME DEJA HUIR
SERGIO SÁNCHEZ DE LOMAS DE ZAMORA [el_millo_ricotero]
Calificar esta versión:
Aviso: Este fichero es trabajo propio de su transcriptor y representa su interpretación personal de la canción. El material contenido en esta página es para exclusivo uso privado, por lo que se prohibe su reproducción o retransmisión, así como su uso para fines comerciales.