La Doble Marca, Skay Beilinson (tablatura)

Autor: Anónimo | 18965 visualizaciones

Intro
e---------------676------------ligados------------------
b----------------------8-5------------------------------
g-------------------------------------------------------
d-------------------------------------------------------
a-------1-2---------------------------------------------
E-0-3-0-----0-------------------------------------------

Verso
a-------1-2------2---1-2-------------------------------
E-0-3-0-------00---3-------0--3-0-5^--3--0-------------

Estás marcado, estás condenado
Tenés la marca de Caín.
Se ve en tu frente, se ve en tus ojos
Llevas la marca de Caín.

Riff Sobre Fa#

Tenés la llaga, no cicatriza
Tenés la marca de Caín.
Te vi buscando, siempre buscando
A otro paria como vos
Otro cainita no tan que no encaja,
Alguien como vos y yo.


Corte en La
Cuerdas:

b---------------5-4-----4-5---------
g--------------2-----5-------------- x2
d-----------------------------------

b--------8-7-5-7-4-x2---------
g-----------------------------
d-----------------------------

b-----------4---4---4-----7-----
g-------5-----5---5---5---------
d-------------------------------


Sol
Estás marcado, estás condenado
Tenés la marca de Caín.
Se ve en tu frente, se ve en tus ojos
Llevas la marca de Caín.

Final
Repite el corte en La, sube medio tono, baja medio y por ultimo
sube 2 tonos y medio.

 Facundo Madrid, Rosario, Arg
 Cualquier consulta mi mail es iguanadie@hotmail.com
 Un abrazo
Calificar esta versión:
Aviso: Este fichero es trabajo propio de su transcriptor y representa su interpretación personal de la canción. El material contenido en esta página es para exclusivo uso privado, por lo que se prohibe su reproducción o retransmisión, así como su uso para fines comerciales.