Entre El Cielo Y La Tierra, Skay Beilinson (tablatura)

Autor: Anónimo | 45326 visualizaciones

Intro:

Guitarra 1:

e|-------------|--|----------|---------------------|--------||-----------------------------|--|
B|-------------|--|------12~-|-------13~-------12~-|--------||-----------------------------|--|
G|---Silecio---|x4|----------|---------------------|--------||-----------------------------|x2|
D|-------------|--|-9/12-----|-12/14-----14-12-----|-10-(9)-||-12-12-12-12-12-12-10-10-(9)-|--|
A|-------------|--|----------|---------------------|--------||-----------------------------|--|
E|-------------|--|----------|---------------------|--------||-----------------------------|--|

e|----------------------------||-----------------------------|--|----------------------------|
B|----------------------------||-----------------------------|--|----------------------------|
G|----------------------------||-----------------------------|x2|----------------------------|
D|-9-9-9-9-9-9-7-7-10-9/7-(5)-||-12-12-12-12-12-12-10-10-(9)-|--|-9-9-9-9-9-9-7-7-10-9/7-(5)-|
A|----------------------------||-----------------------------|--|----------------------------|
E|----------------------------||-----------------------------|--|----------------------------|

e|----5-|-------------|-----3-(3)-|
B|---5--|-------------|----3--(3)-|
G|--5---|-14/16-16-14-|---4-------|
D|-7----|-14/16-16-14-|--5--------|
A|------|-------------|-5---------|
E|------|-------------|-----------|

Guitarra 2: (hace esto toda la intro y toda la cancion)

e|-----3-3-x-|---------------|-----3-3-x-|---------------|-----3-3-x-|---------------|
B|-----3-3-x-|---------------|-----3-3-x-|---------------|-----3-3-x-|---------------|
G|-----4-4-x-|---------------|-----4-4-x-|---------------|-----4-4-x-|---------------|
D|-(5)-------|---------------|-(5)-------|---------------|-(5)-------|---------------|
A|-(5)-------|-(5)--7-7--5-5-|-(5)-------|-(5)--7-7--5-5-|-(5)-------|-(5)--7-7--5-5-|
E|-(3)-------|---------------|-(3)-------|---------------|-(3)-------|---------------|


Estrofas:

Guitarra 1:

            fill1                    fill2
e|--------------------------|---------------------|
B|--------------------------|-------13~-------12~-|
G|--------------------------|---------------------|
D|-----5-7-9-12-9~~-7h9-(7)-|-12/14-----14-12-----|
A|-5/7----------------------|---------------------|
E|--------------------------|---------------------|

Guitarra 2: Sol - Lam
                                                                      LAm
e|-----3-3-x-|---------------|-----3-3-x-|---------------|----5------------------3-(3)-|-----|
B|-----3-3-x-|---------------|-----3-3-x-|---------------|---5------------------3--(3)-|-----|
G|-----4-4-x-|---------------|-----4-4-x-|---------------|--5--14/16-16-14-----4-------|-Sol-|
D|-(5)-------|---------------|-(5)-------|---------------|-7---14/16-16-14----5--------|-----|
A|-(5)-------|-(5)--7-7--5-5-|-(5)-------|-(5)--7-7--5-5-|-------------------5---------|-----|
E|-(3)-------|---------------|-(3)-------|---------------|-----------------------------|-----|

SOL                                     fill1
Una luz de luna llena, en tus ojos yo vi.
                                   fill2
El aire huele a rocio del amanecer.
LAm                                  SOL
La lluvia borra la huella, lava las lagrimas.


Estrofa 2:

Guitarra 1:
     fill3            fill4
e|-3-------|------------------------|
B|---5-----|------12~----13~----12~-|
G|-----5~~-|------------------------|
D|---------|-9/10-----12-----12-----|
A|---------|------------------------|
E|---------|------------------------|

Guitarra 2:
             SOL                 LAm                                DO
e|-----3-3-x----------------|--|----5-|-----3-3-x----------------|----3-|---------|
B|-----3-3-x----------------|--|---5--|-----3-3-x----------------|---5--|---------|
G|-----4-4-x----------------|x2|--5---|-----4-4-x----------------|--5---|---Sol---|
D|-(5)----------------------|--|-7----|-(5)----------------------|-5----|---------|
A|-(5)--------(5)--7-7--5-5-|--|------|-(5)--------(5)--7-7--5-5-|------|---------|
E|-(3)----------------------|--|------|-(3)----------------------|------|---------|


SOL
Rema que rema el barquero,
         LAm       SOL
rema sin pestañear.
DO + fill3                SOL + fill4
Rema mi vida una gota en el mar.


Solo:

Guitarra 1:

e|----------------------------|----------------------------|----------------------------|--|
B|----------------------------|----------------------------|----------------------------|--|
G|----------------------------|----------------------------|----------------------------|x2|
D|12-12-12-12-12-12-10-10-(9)-|12-12-12-12-12-12-10-10-(9)-|-9-9-9-9-9-9-7-7-10-9/7-(5)-|--|
A|----------------------------|----------------------------|----------------------------|--|
E|----------------------------|----------------------------|----------------------------|--|

e|------------------------------|---------------------|--------|---------------|
B|-------13~-------15/17----17~-|----17----------(12)-|----12~-|---------------|
G|------------------------------|----------------(12)-|--------|-12-14-16-(14)-|
D|-12/14-----12/14-------14-----|-14-----14~--12-(12)-|-12-----|-12-14-16-(14)-|
A|------------------------------|---------------------|--------|---------------|
E|------------------------------|---------------------|--------|---------------|

e|------------------------------|----------------|
B|------------------------------|----------------|
G|-14-16-17-17-17-16-14----(12)-|----------------|
D|-14-16-17----17-16-14-12-(12)-|-17-x-19-x-17~~-|
A|------------------------------|----------------|
E|------------------------------|----------------|

Guitarra 2: (base del solo)

e|-----3-3-x-|---------------|-----3-3-x-|---------------|-----3-3-x-|---------------|
B|-----3-3-x-|---------------|-----3-3-x-|---------------|-----3-3-x-|---------------|
G|-----4-4-x-|---------------|-----4-4-x-|---------------|-----4-4-x-|---------------|
D|-(5)-------|---------------|-(5)-------|---------------|-(5)-------|---------------|
A|-(5)-------|-(5)--7-7--5-5-|-(5)-------|-(5)--7-7--5-5-|-(5)-------|-(5)--7-7--5-5-|
E|-(3)-------|---------------|-(3)-------|---------------|-(3)-------|---------------|


Estrofa 2:

Guitarra 1:
             fill5                    fill6
e|-----------------------------|----------------------|
B|------------12---------------|------------------12~-|
G|---------12----12~-----------|-------12~------------|
D|-9-10/12-----------10p9------|-9/-12-----12-/14-----|
A|------------------------10~/-|----------------------|
E|-----------------------------|----------------------|

Guitarra 2: Sol - Lam (igual)

SOL                                        fill5
Desde la orilla del tiempo hacia la eternidad.
SOL                               fill6
Breve como un suspiro la vida se va.
LAm                                   SOL
Navegando el espacio, la barca ya partio.


Final:

Guitarra 1:

e|----------------------------|----------------------------|----------------------------|--|
B|----------------------------|----------------------------|----------------------------|--|
G|----------------------------|----------------------------|----------------------------|x2|
D|12-12-12-12-12-12-10-10-(9)-|12-12-12-12-12-12-10-10-(9)-|-9-9-9-9-9-9-7-7-10-9/7-(5)-|--|
A|----------------------------|----------------------------|----------------------------|--|
E|----------------------------|----------------------------|----------------------------|--|

e|----5-|----------|-----3-3-----|
B|---5--|----------|----3----(3)-|
G|--5---|-16-14-12-|---4---------|
D|-7----|-16-14-12-|--5----------|
A|------|----------|-5-----------|
E|------|----------|-------------|

y termina con esto varias veces...

e|----------------------------|----------------------------|----------------------------|
B|----------------------------|----------------------------|----------------------------|
G|----------------------------|----------------------------|----------------------------|
D|12-12-12-12-12-12-10-10-(9)-|12-12-12-12-12-12-10-10-(9)-|-9-9-9-9-9-9-7-7-10-9/7-(5)-|
A|----------------------------|----------------------------|----------------------------|
E|----------------------------|----------------------------|----------------------------|

Guitarra 2: Sol

e|-----3-3-x-|---------------|-----3-3-x-|---------------|-----3-3-x-|---------------|
B|-----3-3-x-|---------------|-----3-3-x-|---------------|-----3-3-x-|---------------|
G|-----4-4-x-|---------------|-----4-4-x-|---------------|-----4-4-x-|---------------|
D|-(5)-------|---------------|-(5)-------|---------------|-(5)-------|---------------|
A|-(5)-------|-(5)--7-7--5-5-|-(5)-------|-(5)--7-7--5-5-|-(5)-------|-(5)--7-7--5-5-|
E|-(3)-------|---------------|-(3)-------|---------------|-(3)-------|---------------|

e|-----3-3-x-|---------------|-----3-3-x-|---------------|-----3-3-x-|---------------|
B|-----3-3-x-|---------------|-----3-3-x-|---------------|-----3-3-x-|---------------|
G|-----4-4-x-|---------------|-----4-4-x-|---------------|-----4-4-x-|---------------|
D|-(5)-------|---------------|-(5)-------|---------------|-(5)-------|---------------|
A|-(5)-------|-(5)--7-7--5-5-|-(5)-------|-(5)--7-7--5-5-|-(5)-------|-(5)--7-7--5-5-|
E|-(3)-------|---------------|-(3)-------|---------------|-(3)-------|---------------|


Fin.
Calificar esta versión:
Aviso: Este fichero es trabajo propio de su transcriptor y representa su interpretación personal de la canción. El material contenido en esta página es para exclusivo uso privado, por lo que se prohibe su reproducción o retransmisión, así como su uso para fines comerciales.