El Infierno Está Encantador Esta Noche, Skay Beilinson (tablatura)

Autor: Anónimo | 33542 visualizaciones



Intro: E

E|---------------------|-----------------------------------------------|
B|(12)-----------------|-9-10-12~---10-9-------------10-12-10-9--------|
G|----9-9~-------------|-----------------9-7------7-9-----------9-9-7~-|
D|--------9-7-6--------|---------------------9~-9----------------------|
A|--------------7-5-7~-|-----------------------------------------------|
E|---------------------|-----------------------------------------------|

E|--7-9-10~-----7-9-10~----7-9-10-9-7-4-5-7-----|
B|------------------------------------------5~--|
G|----------------------------------------------|
D|----------------------------------------------|
A|----------------------------------------------|
E|----------------------------------------------|


E            E                 E            E
Son por acaso ustedes, hoy, un publico respetable?
E            E                 E            E
pueden acaso beber el vino, por ustedes envasado?
D                        E
puede alguien decirme? -me voy a comer tu dolor!-
D                        E
y repetirme -voy a salvarte esta noche-
F#m       E      D      A
que el infierno esta encantador
F#m       E      D      A
Este infierno esta embriagador
F#m       E      D      A
Esta noche esta encantador
F#m          E           D
tu infierno esta encantador… Esta noche!


E|------------------|---------------------|
B|-(12)--10-9-------|------9-----10-9-----|
G|------------9-----|--------9-7------9-7~|
D|--------------9~--|--7-9----------------|
A|------------------|---------------------|
E|------------------|---------------------|


E|--7-9-10~-----7-9-10~----7-9-10-9-7-4-5-7-----|
B|------------------------------------------5~--|
G|----------------------------------------------|
D|----------------------------------------------|
A|----------------------------------------------|
E|----------------------------------------------|

E            E                 E            E
Por que no te dejas de pensar en labios que besan frio
E            E                 E            E
para cerrar un ojo y ver cuantos cuernos tiene el diablo
D              E         D           E
puede alguien decirme? -me voy a comer tu dolor!-
D          E    D             E
y repetirme -voy a salvarte esta noche-
F#m       E      D      A
que el infierno esta encantador
F#m       E      D      A
Este infierno esta embriagador
F#m       E      D      A
Esta noche esta encantador
F#m          E           D
tu infierno esta encantador… Esta noche!

E|-------------|----------------------|
B|--10-9-------|------9-----10-9------|
G|-------9-----|--------9-7------9-7~-|
D|---------9~--|--7-9-----------------|
A|-------------|----------------------|
E|-------------|----------------------|


E|-----------------------------------------|
B|-9-10-12~--9-10-9------------------------|
G|------------------9----------------------|
D|--------------------9~--6-7-9-7-6--------|
A|---------------------------------7-5-7~--|
E|-----------------------------------------|

E|----14-15-17~---17-15-14------|-----------14-------15-14--------|
B|-15---------------------15----|-----15-17----17-15-------14-----|
G|---------------------------16~|--16-------------------------16~-|
D|------------------------------|---------------------------------|
A|------------------------------|---------------------------------|
E|------------------------------|---------------------------------|

E|--7-9-10~-----7-9-10~----7-9-10-9-7-4-5-7-----|
B|------------------------------------------5~--|
G|----------------------------------------------|
D|----------------------------------------------|
A|----------------------------------------------|
E|----------------------------------------------|


E            E                 E            E
Son por acaso ustedes, hoy, un publico respetable?
E            E                 E            E
pueden acaso beber el vino, por ustedes envasado?
D                        E
puede alguien decirme? -me voy a comer tu dolor!-
D                        E
y repetirme -voy a salvarte esta noche-
F#m       E      D      A
que el infierno esta encantador
F#m       E      D      A
Este infierno esta embriagador
F#m       E      D      A
Esta noche esta encantador
F#m          E           D
tu infierno esta encantador… Esta noche!

               E                                E
E|-------------------------------------------------|-----|
B|-------9-----10-9--------------------------------|-----|
G|-9---9---9-7------9-7----------------------------|-----|
D|---9------------------9-7-6-------6--------------|--2--|
A|----------------------------7-5-7---7~~----------|--2--|
E|-------------------------------------------------|--0--|

FIN.





Calificar esta versión:
Aviso: Este fichero es trabajo propio de su transcriptor y representa su interpretación personal de la canción. El material contenido en esta página es para exclusivo uso privado, por lo que se prohibe su reproducción o retransmisión, así como su uso para fines comerciales.