Canción De Cuna, Skay Beilinson (tablatura)

Autor: Anónimo | 37186 visualizaciones

[INTRO]

   E
e|---------7~-777-9---------------7~-777-9---
B|----5-7/9--------7br-5~----5-7/9--------7b-
G|-4-6-------------------4-6-----------------
D|-------------------------------------------
A|-------------------------------------------
E|-------------------------------------------

                                    B
e|---------7~-777-9---------------7-9-----------------|
B|----5-7/9--------7br-5~----5-7/9----7/8-7-5-7br-55~-|
G|-4-6--------------------4-6-------------------------|
D|----------------------------------------------------|
A|----------------------------------------------------|
E|----------------------------------------------------|

[VERSO]

          E
Puse un nuevo remache en tu frente
aceite fresco en tu corazón
yo te canto esta Canción de cuna
                 B       E
duerme niño, mi niño robot

[SOLO]

       A                         E
e|-16(/17)----------------------3/4~----------------
B|-16(/17)-2-1-2-3-2--2-1-2-3-2-4/5~-5-7-8-9-8-7-5~-
G|------------------2-------------------------------
D|-----------------------------------5-7-8-9-8-7-5~-
A|--------------------------------------------------
E|--------------------------------------------------

  A
e|-----------------------------------------|
B|-2-1-2-3-2--2-1-2-3-2--44-22-------------|
G|----------2-----------------44-22-11-----|
D|------------------------------------5-4~-|
A|-----------------------------------------|
E|-----------------------------------------|



E (con INTRO de fondo)
Duerme, duermete mi niño
duerme, duermete mi sol
yo te canto esta Canción de cuna
                 B       E
duerme niño, mi niño robot
                 B       E
duerme niño, mi niño robot
                 B       A
duerme niño, mi niño robot

E



temazo del nuevo disco
cualquier cosa me mandan mail a lalos_boca20@hotmail.com
Aguante el Rock n' roll y nada mas,
es algo que los chetos no pueden entender!
Calificar esta versión:
Aviso: Este fichero es trabajo propio de su transcriptor y representa su interpretación personal de la canción. El material contenido en esta página es para exclusivo uso privado, por lo que se prohibe su reproducción o retransmisión, así como su uso para fines comerciales.