Arcano Xiv, Skay Beilinson (tablatura)

Autor: agu_87 | 16321 visualizaciones

Intro La5
      Sib5/La5

 Riff

e------------------------------
b------------------------------
g------------------------------
d------9-9-7-6-7-6-------------
a----7-------------8-8-7-------
E------------------------------

e-----------------------------
b-----------------------------
g-----------------------------
d------9-9-7-6-7-6------------
a----7-------------8^-7-------
E-----------------------------

e---------------------
b---------------------
g---------------------
d------5--------------
a----5---8-7----------
E---------------------




Si vos sos las armas que miran al cielo
Yo, las raíces que a la tierra van
Si vos sos la noche, yo soy el día
Si vos sos el fuego, la leña yo soy.

No existe rosa que no tenga espinas
No hay espina sin dolor
Si vos sos la rosa, yo soy la espina
Si vos sos la espina, yo soy el dolor.

Corte

e-------------------------------
b------232--------ligados-------
g-22-------2--------------------
d-22----------------------------
a-00----------------------------
E-------------------------------


e-------------------------------
b------232-----5---ligados------
g-22-------2--------------------
d-22----------------------------
a-00----------------------------
E-------------------------------


e-------------------------------
b------232--------ligados-------
g-22-------2--------------------
d-22----------------------------
a-00----------------------------
E-------------------------------


e-----------------------------
b--2----5--2------------------
g---2-3------2-3--------------
d-----------------5-----------
a-----------------------------
E-----------------------------



e--------------------------------
b--2----5--8-8-2-----------------
g---2-3---------2-3----0^2^0-----
d--------------------5-----------
a--------------------------------
E--------------------------------

Vos sos la copa y yo soy el vino
Vos sos el puerto y el barco yo soy
Si vos sos la espada yo soy el filo
Si vos sos la luz, la sombra yo soy.

Final


e--5-3-----------------
b------5-3-2-----------
g-------------3-2------
d----------------------
a----------------------
E----------------------

Comentarios del colaborador: http://lacuerda.net

Calificar esta versión:
Aviso: Este fichero es trabajo propio de su transcriptor y representa su interpretación personal de la canción. El material contenido en esta página es para exclusivo uso privado, por lo que se prohibe su reproducción o retransmisión, así como su uso para fines comerciales.