Coperemos (intro), Skavron 16 (tablatura)

Autor: punky | 33140 visualizaciones

guitarra 1


-3-3-3-xxx3-3-3-xxx5-5-5-
-3-3-3-xxx5-5-5-xxx7-7-7-
-4-4-4-xxx5-5-5-xxx7-7-7-
-------------------------
-------------------------
-------------------------


guitarra 2



-15-17-19-17-15-17-15----------------
----------------------17-17-15-13-13-
-------------------------------------
-------------------------------------
-------------------------------------
-------------------------------------

Comentarios del colaborador: aaaaaaaa

Calificar esta versión:
Aviso: Este fichero es trabajo propio de su transcriptor y representa su interpretación personal de la canción. El material contenido en esta página es para exclusivo uso privado, por lo que se prohibe su reproducción o retransmisión, así como su uso para fines comerciales.